Placebo - Sleeping With Ghosts Chords & Tabs

 

Sleeping With Ghosts Chords & Tabs

Placebo Chords & Tabs

Version: 1 Type: Bass Tab 0 ratings
1 star 2 stars 3 stars 4 stars 5 stars
comments

Sleeping With Ghosts Bass Tab

Tabbed By : PeaRce
e-mail: Cobains_ghost@hotmail.com

Tuning:EADG

Pretty simple song really, just this - 

G|-----------------------|
D|-----------------------|
A|-----------------8--8--|    x2
E|-6-6-9-66--6--6--------|
[ Tab from: http://www.guitartabs.cc/tabs/p/placebo/sleeping_with_ghosts_btab.html ]
G|-----------------------------------|
D|-----------------------------------|
A|------4--------------4-------------|    x2
E|-2-2----22x---02-2-2---22-2---4-4--|

Use these parts everytime the bass comes in. I cant be
bothered to write when that is, half the song is just guitar
Comments