Placebo - Slackerbitch Chords & Tabs

 

Slackerbitch Chords & Tabs

Placebo Chords & Tabs

Version: 1 Type: Tab 0 ratings
1 star 2 stars 3 stars 4 stars 5 stars
comments

Slackerbitch Tab

   
Song: SlackerBitch
By: Placebo

This song, as you might know, is a Smiths song. This cover is excelent, but not as good as the 
original. Placebo's way to make covers is excelent, and here is another one.


STANDARD TUNING  = (E A D G B E)

||INTRO||

E | -------------------------------------------------------------------------- |
B | -------------------------------------------------------------------------- |
G | ---12------12------12------12------12--------8-----8-----8-----8-----8---- | x 2
D | ------10------10------10------10------10-------6-----6-----6-----6-----6-- |
A | -8-------8-------8-------8-------8---------4-----4-----4-----4-----4------ |
E | -------------------------------------------------------------------------- |


||1st. VERSE||

                     "It echoes in my brain..................I didn't mean it
                      Pulses through my veins................I didn't mean it
                      I'm the one to blame...................I didn't mean it
                      Did too much cocaine...................I didn't mean it"

E | -------------------------------------------------------------------------- |
B | -------------------------------------------------------------------------- |
G | ---12------12------12------12------12--------8-----8-----8-----8-----8---- | x 4
D | ------10------10------10------10------10-------6-----6-----6-----6-----6-- |
A | -8-------8-------8-------8-------8---------4-----4-----4-----4-----4------ |
E | -------------------------------------------------------------------------- |


||1st. CHORUS||
*Heavy Distortion
                                   "Slackerbitch, faghag, whore
                                    looks real cute, her lips are sore
                                    slackerbitch, faghag, whore
                                    always comes back for more"
                                         
E | ------------------------ |     | ----------------------- |
B | ------------------------ |     | ----------------------- |
G | -8-8-8--8-8------------- |x 1  | ------------6-6-6-6-6-- | x 4
D | -8-8-8--8-8--6--6-6-6-6- |     | -3-3-3-3-3--6-6-6-6-6-- |
A | -6-6-6--6-6--6--6-6-6-6- |     | -3-3-3-3-3--4-4-4-4-4-- |
E | -------------4--4-4-4-4- |     | -1-1-1-1-1------------- |


||2nd. VERSE||

                    "Your memory will fade..................I didn't mean it
                     You've always had it made..............I didn't mean it
                     I know you feel betrayed...............I didn't mean it
                     I just wanted to get laid..............I didn't mean it"

E | -------------------------------------------------------------------------- |
B | -------------------------------------------------------------------------- |
G | ---12------12------12------12------12--------8-----8-----8-----8-----8---- | x 4
D | ------10------10------10------10------10-------6-----6-----6-----6-----6-- |
A | -8-------8-------8-------8-------8---------4-----4-----4-----4-----4------ |
E | -------------------------------------------------------------------------- |

[ Tab from: http://www.guitartabs.cc/tabs/p/placebo/slackerbitch_tab.html ]
||2nd. CHORUS||
*Heavy Distortion
                                   "Slackerbitch, faghag, whore
                                    looks real cute, her lips are sore
                                    slackerbitch, faghag, whore
                                    always knocking on my door"
                                         
E | ------------------------ |     | ----------------------- |
B | ------------------------ |     | ----------------------- |
G | -8-8-8--8-8------------- |x 1  | ------------6-6-6-6-6-- | x 4
D | -8-8-8--8-8--6--6-6-6-6- |     | -3-3-3-3-3--6-6-6-6-6-- |
A | -6-6-6--6-6--6--6-6-6-6- |     | -3-3-3-3-3--4-4-4-4-4-- |
E | -------------4--4-4-4-4- |     | -1-1-1-1-1------------- |


||INTERLUDE||

E| -------------------------------------------------------------------------------------------|
B| -------------------------------------------------------------------------------------------|
G| 12-12-12-12-12-12-13-10--10-10-10-10-10-10-10--12-12-12-12-12-12-12--12-/-13-13-13-13-13-13| x2
D| -x--x--x--x--x--x--x--x---x--x--x--x--x--x--x---x--x--x--x--x--x--x---x-/--x--x--x--x--x--x|
A| 10-10-10-10-10-10-11--8---8--8--8--8--8--8--8--10-10-10-10-10-10-10--10-/-11-11-11-11-11-11|
E| -------------------------------------------------------------------------------------------|


||3th. VERSE||
                      "You come across impure...............I didn't mean it
                       You're god*** immature..............I didn't mean it
                       You act so insecure..................I didn't mean it
                       You hate me now I'm sure.............I didn't mean it

E | -------------------------------------------------------------------------- |
B | -------------------------------------------------------------------------- |
G | ---12------12------12------12------12--------8-----8-----8-----8-----8---- | x 4
D | ------10------10------10------10------10-------6-----6-----6-----6-----6-- |
A | -8-------8-------8-------8-------8---------4-----4-----4-----4-----4------ |
E | -------------------------------------------------------------------------- |


||3th. CHORUS||
*Heavy Distortion
                                   "Slackerbitch, faghag, whore
                                    looks real cute, her lips are sore
                                    slackerbitch, faghag, whore
                                    dripping sex from every pore
                                    Slackerbitch, faghag, whore
                                    looks real cute, her lips are sore
                                    slackerbitch, faghag, whore
                                    such a mother***ing bore"
                                         
E | ------------------------ |     | ----------------------- |
B | ------------------------ |     | ----------------------- |
G | -8-8-8--8-8------------- |x 1  | ------------6-6-6-6-6-- | x 8
D | -8-8-8--8-8--6--6-6-6-6- |     | -3-3-3-3-3--6-6-6-6-6-- |
A | -6-6-6--6-6--6--6-6-6-6- |     | -3-3-3-3-3--4-4-4-4-4-- |
E | -------------4--4-4-4-4- |     | -1-1-1-1-1------------- |

||ENDING||


E | ------------------------------------------------------------------------------------------- |
B | ------------------------------------------------------------------------------------------- |
G | 12-12-12-12-12-12-13-10--10-10-10-10-10-10-10--12-12-12-12-12-12-12--12-/-13-13-13-13-13-13 | 
D | -x--x--x--x--x--x--x--x---x--x--x--x--x--x--x---x--x--x--x--x--x--x---x-/--x--x--x--x--x--x |
A | 10-10-10-10-10-10-11--8---8--8--8--8--8--8--8--10-10-10-10-10-10-10--10-/-11-11-11-11-11-11 |
E | ------------------------------------------------------------------------------------------- |
       *Repeat all this until song fades out*
Comments