Placebo - Scared Of Girls Chords & Tabs

 

Scared Of Girls Chords & Tabs

Placebo Chords & Tabs

Version: 2 Type: Tab 0 ratings
1 star 2 stars 3 stars 4 stars 5 stars
comments

Scared Of Girls Tab

   
"Pure Morning" Tuning (D# A# D# G# C C)

Intro:

C  ---------------------------------------
C  ---------------------------------------
G# ---------------------------------------
D# ---------------------------------------
A# --7-7----7-7----7-7----7-7------------- 
D# --7-7----7-7----7-7----7-7-------------

Verse:

C  ----------------------------------------------
C  ----------------------------------------------
G# ----------------------------------------------
D# ----------------------------------------------
A# --7-7-7-7-10-10-10-10-7-7-7-7-10-10-10-10-----Repeat
F  --7-7-7-7-10-10-10-10-7-7-7-7-10-10-10-10-12--

"Careenin'..." bit:

C  --------------------------------------------
C  --------------------------------------------
G# --------------------------------------------
D# -7-7-7--------------------------------------
A# -7-7-7-<7>-<7>-<7>-<7>-<7>-<7>-<7>-<7>-<7>--Repeat
F  -7-7-7--------------------------------------(X3)


Last "Careenin'..." bit, just before chorus:

C  -------------------------------------------
C  -------------------------------------------
G# -------------------------------------------
D# -7-7-7-------------------------------------
A# -7-7-7-<5>-<5>-<5>-<5>-<5>-<5>-<5>-<5>-<5>- 
F  -7-7-7-------------------------------------

[ Tab from: http://www.guitartabs.cc/tabs/p/placebo/scared_of_girls_tab_ver_2.html ]
C  --------------------------------------------
C  --------------------------------------------
G# --------------------------------------------
D# --------------------------------------------
A# -0-0-7-7-7-8-8-14-12----0-0-7-7-7-8-8--14-15-----Repeat
F  --------------------------------------------

"Got a place inside it..." bit:

C  --------------------------------------
C  --------------------------------------
G# --------------------------------------
D# ---------------5-2--------------------
A# --------------------------------------Repeat
F  -5-5-5-5-5-1-1------------------------


Solo:

C  -------------------------------------------------------------------------------
C  -------------------------------------------------------------------------------
G# -17-17-17-16-16--16-16-16-14-14--14-14-14-12-12--12-12-12-10-10--*10-10-10-9-9-
D# -------------------------------------------------------------------------------
A# -------------------------------------------------------------------------------
F  -------------------------------------------------------------------------------
*Repeat (X4)

Note: Stefan plays guitar on this (Fender VI), which is why it sounds like a bass heavy song.
This is based on what both Brian and Stefan play (live and on album).

Live, Brian plays this in the chorus:

C  ------------------------------------------
C  ------------------------------------------
G# ------------------------------------------
D# -7-7-7-7-7-7-7-7-7-7--7-7-7-7-7-7-7-7-7---
A# -0-0-0-0-0-8-8-8-8-8--0-0-0-0-0-8-8-8-8---Repeat
F  ------------------------------------------
Comments