Placebo - Scared Of Girls Chords & Tabs

 

Scared Of Girls Chords & Tabs

Placebo Chords & Tabs

Version: 1 Type: Bass Tab 0 ratings
1 star 2 stars 3 stars 4 stars 5 stars
comments

Scared Of Girls Bass Tab

Placebo - Scared Of Girls

"Pure Morning" Tuning (D# A# D#)

Intro:

G# ---------------------------------------
D# ---------------------------------------
A# --7-7----7-7----7-7----7-7------------- 
D# --7-7----7-7----7-7----7-7-------------

Verse:

G#|----------------------------------------------|
D#|----------------------------------------------|
A#|----------------------------------------------| Repeat
D#|--7-7-7-7-10-10-10-10-7-7-7-7-10-10-10-10-12--|

"Careenin'..." bit:

G#|----------------------------------------------|
D#|----------------------------------------------|
A#|----------------------------------------------| Repeat
D#|-7-7-7----------------------------------------|(X4)
[ Tab from: http://www.guitartabs.cc/tabs/p/placebo/scared_of_girls_btab.html ]
G#|----------------------------------------------|
D#|----------------------------------------------|
A#|-0-0-7-7-7-8-8-14-12----0-0-7-7-7-8-8--14-15--|Repeat
D#|----------------------------------------------|

"Got a place inside it..." bit:

G#|--------------------------------------|
D#|---------------5-2--------------------|
A#|--------------------------------------| Repeat
D#|--5-5-5-5-5-1-1-----------------------|


Solo:

G#|-17-17-17-16-16--16-16-16-14-14--14-14-14-12-12--12-12-12-10-10--*10-10-10-9-9-|
D#|-------------------------------------------------------------------------------|
A#|-------------------------------------------------------------------------------|
D#|-------------------------------------------------------------------------------|
*Repeat (X4)
Comments