Placebo - Pure Morning Chords & Tabs

 

Pure Morning Chords & Tabs

Placebo Chords & Tabs

Version: 4 Type: Tab 0 ratings
1 star 2 stars 3 stars 4 stars 5 stars
comments

Pure Morning Tab

   
-------------------------------------------------------------------------------
			     Pure Morning - Placebo
-------------------------------------------------------------------------------

Tabbed by: DasPop
Email: schep_vreugde_en_leef@hotmail.com

Tuning: standard Placebo tuning: CAPO 1 FRET

Intro
first guitar
e|-------------------------------------------------|
B|-------------------------------------------------|
G|-------------------------------------------------|
D|-x-x-x-x-x-x-x-x-x-x-x-x-x-x-x-x-x-x-x-x-x-x-x-x-|
A|-5-5-5-5-5-5-5-5-5-5-5-5-5-5-5-5-5-5-5-5-5-5-5-5-|
E|-x-x-x-x-x-x-x-x-x-x-x-x-x-x-x-x-x-x-x-x-x-x-x-x-|
[ Tab from: http://www.guitartabs.cc/tabs/p/placebo/pure_morning_tab_ver_4.html ]
second guitar (drops in after a certain time)
e|----------------------------------|
B|---------7------------------------|
G|-----7-----7---7------7---7---7---|
D|---7---7-----7------7---7---7---5-|
A|-5----------------5---------------|
E|----------------------------------|
repeat these guitars during the verse

Chorus
e|-------------------------------------------------------------|
B|-------------------------------------------------------------|
G|-------------------------------------------------------------|
D|-x-x-x-x-x-x-x-x-x-x-x-x-x-x-x-x---x-x-x-x-x-x-x-x-x-x-x-x-x-|
A|-x-x-x-5-5-x-x-5-5-x-5-5-5-9-9-10b-5-5-x-x-5-5-x-5-5-5-2-2-3-|
E|-x-x-x-x-x-x-x-x-x-x-x-x-x-x-x-x---x-x-x-x-x-x-x-x-x-x-x-x-x-|
repeat this a few times

Verse
Chorus
Bridge (guitar stays the same as the one used in the intro)
Verse
Chorus
End On:
e|--------------|
B|--------------|
G|--------------|
D|-x------------|
A|-5-ring-------|
E|-x------------|
Comments