Placebo - Pure Morning Chords & Tabs

 

Pure Morning Chords & Tabs

Placebo Chords & Tabs

Version: 3 Type: Tab 0 ratings
1 star 2 stars 3 stars 4 stars 5 stars
comments

Pure Morning Tab

   
Tuning (Eb Bb C# G# C C)

Looped sample (played throughout duration of the song):


C  -------------------------
C  -------------------------
G# -------------------------
C# -2---2---2---2-----------
Bb -5---5---5---5----------- 
Eb -0---0---0---0-----------


Chorus:
[ Tab from: http://www.guitartabs.cc/tabs/p/placebo/pure_morning_tab_ver_3.html ]
C  ---------------------------------------------------------
C  ---------------------------------------------------------
G# ---------------------------------------------------------
C# ---------------------------------------------------------
Bb --5---5---5---5---5----5---5----5---5---5----9-9-9-10---- 
Eb -<5>-<5>-<5>-<5>-<5>--<5>-<5>--<5>-<5>-<5>---------------

C  ---------------------------------------------------------
C  ---------------------------------------------------------
G# ---------------------------------------------------------
C# ---------------------------------------------------------
Bb --5---5---5---5---5----5---5----5---5---5---------------- 
Eb -<5>-<5>-<5>-<5>-<5>--<5>-<5>--<5>-<5>-<5>---9-9-9-10----
Comments