Placebo - Post Blue Chords & Tabs

 

Post Blue Chords & Tabs

Placebo Chords & Tabs

Version: 1 Type: Tab

Post Blue Tab

Placebo - Post Blue. From the album Meds. Released 13th March 2006.
These two intro riffs are repeated throughout and make up the song.

INTRO - Start.
----------------------------------/------------------------|
------------------2-4-2----------/-------------------------|
------8-8-4-6---3-------4-3-4---/--Repeat-once-------------|
----6---------5-----------------/--------------------------|
-------------------------------/---------------------------|
------------------------------/----------------------------|
[ Tab from: http://www.guitartabs.cc/tabs/p/placebo/post_blue_tab.html ]
-----------------------------------------|
-----------------------------------------|
------4-3-4---4-3-4---4-3-4-6-4-3-4------|
----6-------6-------6--------------------|
-----------------------------------------|
-----------------------------------------|

-----------------------------------------|
-----------------------------------------|
------4-3-4---4-3-4---4-3-4-6-4-3-4------|
----6-------6-------6---------------6----|
-----------------------------------------|
-----------------------------------------|
Intro - End.