Placebo - Plasticine Chords & Tabs

 

Placebo Chords & Tabs

Version: 1 Type: Tab 0 ratings
1 star 2 stars 3 stars 4 stars 5 stars
comments

Plasticine Tab

   
-------------------------------------------------------------------------------
			     Plasticine - Placebo
-------------------------------------------------------------------------------

Tabbed by:DasPop
Email:schep_vreugde_en_leef@hotmail.com

Standard Placebo tuning
CAPO 1 FRET
(all relative to capo)

intro = verse (x2)
e|-----------------------------------------------------------------|
B|-----------------------------------------------------------------|
G|-4-4-4-4-4-4-4-4-4-4-4-4-4-4-------------------------------------|
D|-4-4-4-4-4-4-4-4-4-4-4-4-4-4-6-6-6-6-6-6-6-6-6-6-6-6-6-6-8-8-8-8-|x2
A|-2-2-2-2-2-2-2-2-2-2-2-2-2-2-6-6-6-6-6-6-6-6-6-6-6-6-6-6---------|
E|-----------------------------4-4-4-4-4-4-4-4-4-4-4-4-4-4---------|

e|-----------------------------------------------------------------------------|
B|-----------------------------------------------------------------------------|
G|-9-9-9-9-9-9-9-9-9-9-9-9-9-9-6-6-6-6-6-6-6-8-8-8-8-8-8-8-8-8-8-8-8-8-8-9-9-9-|
D|-9-9-9-9-9-9-9-9-9-9-9-9-9-9-6-6-6-6-6-6-6-8-8-8-8-8-8-8-6-6-6-6-6-6-6-9-9-9-|
A|-7-7-7-7-7-7-7-7-7-7-7-7-7-7-4-4-4-4-4-4-4-6-6-6-6-6-6-6-6-6-6-6-6-6-6-7-7-7-|
E|-----------------------------------------------------------------------------|

e|-----------------------|
B|-----------------------|
G|-9-9-9-9-9-9-9-9-9-9-9-|
D|-9-9-9-9-9-9-9-9-9-9-9-|
A|-7-7-7-7-7-7-7-7-7-7-7-|
E|-----------------------|
[ Tab from: http://www.guitartabs.cc/tabs/p/placebo/plasticine_tab.html ]
chorus
e|------------------------|
B|------------------------|
G|-x--x-------------------|
D|-x--x-------------------|x4
A|-3--2-------------------|
E|-x--x-0-2-3-0-2-4-0-2-4-|

bridge
guitar one
e|----------------------------------------------------------|
B|-6-6-6-6-6-6-6-8-8-8-8-8-8-8--8-8-8-8-8-8-8-6-6-6-6-6-6-6-|
G|-5-5-5-5-5-5-5-7-7-7-7-7-7-7--7-7-7-7-7-7-7-5-5-5-5-5-5-5-|
D|----------------------------------------------------------|x4
A|----------------------------------------------------------|
E|----------------------------------------------------------|

guitar two (after a few times guitar one)
e|----------------------------------------------------------------------------|
B|----------------------------------------------------------------------------|
G|-6-6-6-6-6-6-6-6-6-6-6-6-6-6-6-6-6-6-6-8-8-8-8-8-8-6-8-10-10-10-10-10-10-10-|
D|----------------------------------------------------------------------------|
A|----------------------------------------------------------------------------|
E|----------------------------------------------------------------------------|

e|---------------------------|
B|---------------------------|
G|-10-10-10b-10-10-10b-10-10-|
D|---------------------------|
A|---------------------------|
E|---------------------------|
chorus
outro
e|-------------------------------------------------------------|
B|-------------------------------------------------------------|
G|---------------------------------0-0-0-0-0-0-0-2-2-2-2-2-2-2-|
D|-9-6-6--6-6-6-6--9-6-6--6-6-6-6--2-2-2-2-2-2-2-3-3-3-3-3-3-3-|
A|-9-6-6--6-6-6-6--9-6-6--6-6-6-6--2-2-2-2-2-2-2-3-3-3-3-3-3-3-|x4
E|-7-4-4--4-4-4-4--7-4-4--4-4-4-4--0-0-0-0-0-0-0-1-1-1-1-1-1-1-|

I'm not shure about some parts, but I think it's a start.
chears!
Comments