Placebo - Passive Aggressive Chords & Tabs

 

Passive Aggressive Chords & Tabs

Placebo Chords & Tabs

Version: 2 Type: Tab 0 ratings
1 star 2 stars 3 stars 4 stars 5 stars
comments

Passive Aggressive Tab

   
F#, Bb, Eb, G#, C, C.

Intro:
* emphasis on these notes

c  ----------------------------------------
C  ----------------------------------------
G# ----------------------------------------
Eb ----------------------------------------
Bb -15-15-15-15-15-15-15-------------------
F# ----------------------0-0--0-0-0-0-0-0-- (X4)
    *  *  *  *  *  *  * 

"It's in your reach..." bit:

F  ------------------------------------------------
C  ------------------------------------------------
G# ------------------------------------------------
Eb ------------------------------------------------
Bb -15\-12-12-12-12-12-10-12-12/-15-12-10-10-10-12-
F# ------------------------------------------------

F  ---------------------------------------------
C  ---------------------------------------------
G# ---------------------------------------------
Eb ---------------------------------------------
Bb 12-10-12-12-12-12-12-10-12-10-7-7-7-7-7-7-7-- (X2)
F# ---------------------------------------------

"If you deny it..." bit:
() note in brackets: harmonic


C  ----------------------------------------------
C  ----------------------------------------------
G# ----------------------------------------------
Eb ----------------------------------------------
Bb -8-8-8-8-8-10-8-7-----------------------------
F# -0-0-0-0-0-0--0-0-(7)-(7)-(7)-(7)-(7)-(7)-(7)- 


Chorus: ("Everytime I rise I see you falling...") bit:
[ Tab from: http://www.guitartabs.cc/tabs/p/placebo/passive_aggressive_tab_ver_2.html ]
C  --------------------------------------------------------------------
C  --------------------------------------------------------------------
G# --------------------------------------------------------------------
Eb -------7-7--7-7-7----------------7-7--7-7-7--7-7-7-7----------------
Bb ------------------7--7-7-7-7-7-7------------------------------------
F# -5-5-5----------------------------------------------5-5-5-5-5-5-5-5-


C  -------------------------------------------------------------------
C  -------------------------------------------------------------------
G# -------------------------------------------------------------------
Eb -------------------------------------------------------------------
Bb -------------------10-10-10--8--8-8-8-8-8-8-8-10-10-10-10-10-10-10-
F# -0-0--0-0-0-0--0-0-------------------------------------------------

C  -------------------------
C  -------------------------
G# -------------------------
Eb -------------------------
Bb 12-12-12-12-12-12-12-12--
F# -------------------------
(-7--7--7--7--7--7--7--7-)
Use this on the "Find me space, find me space..." bit.

Chorus:
Bill plays this live (using an e-bow).
Halfway through 2nd chorus. 
All of last chorus.

C  -------------------------------------------------------------
C  -------------------------------------------------------------
G# -7/-14--10--9-----/14--10--9-----/14--10--9---/14--10--9-----
Eb ---------------8-------------8-7------------7-------------7--
Bb -------------------------------------------------------------
F# -------------------------------------------------------------
Comments