Placebo - Passive Aggressive Chords & Tabs

 

Passive Aggressive Chords & Tabs

Placebo Chords & Tabs

Version: 1 Type: Bass Tab 0 ratings
1 star 2 stars 3 stars 4 stars 5 stars
comments

Passive Aggressive Bass Tab

   
Intro:
(imply ring A holding on to "9")
G-----------------|
D-----------------|
A-9-9-9-9-9-9-9-9-|
E-----------------|

Verse:
(It's in your reache)      (concentrate)
G---------------6---------|-------------------------|
D-8-8-8-8-8-6-8---8-6-8-8-|-8-8-8-8-8-6-8-6---------|
A-------------------------|-----------------8-6-8-8-|
E-------------------------|-------------------------|
[ Tab from: http://www.guitartabs.cc/tabs/p/placebo/passive_aggressive_btab.html ]
(If you deny this, then it's your fault...) (x4)
G------------------|
D------------------|
A-9-9-9-9-9-11-9-8-|
E------------------|

Chorus:
(Every time I rise I see you falling.......)
G-----------------------|
D-------8-8-8-----------|
A-------------9-8---8---|
E-7-7-7-----------9---9-|

(Can you find me space inside your bleeding heart)
G-----------------------|
D-----------------------|
A-------9-9-9-8---------|
E-7-7-7---------9-7-9-7-|

Bridge: (x4)
G-----------|
D-----------|
A-6~--7-8-9-|
E-----------|

order of the song:

Intro
Verse (x2)
Chorus (x2)
Bridge
Verse (x1)
Chorus (x2)
Bridge
Chorus (x3)
Bridge
Comments