Placebo - Nancy Boy Chords & Tabs

 

Nancy Boy Chords & Tabs

Placebo Chords & Tabs

Version: 3 Type: Tab 0 ratings
1 star 2 stars 3 stars 4 stars 5 stars
comments

Nancy Boy Tab

Nancy Boy - Placebo
Revised by: TheInquisitions@yahoo.com
Tabbed by: (Thebsh.com) 

Intro:

-------------------------------------------------------------------------
-------------------------------------------------------------------------
-------------------------------------------------------------------------
--6-6-6-6-6-6-6-6-6-6-6-6-6-6-6-6-6-6-6-6-6-6-6-6-6-6-6-6-6-6-6-6-6-6-6--
--7-7-7-7-7-7-7-7-7-7-7-7-7-7-7-7-7-7-7-7-7-7-7-7-7-7-7-7-7-7-7-7-7-7-7--
--0-0-0-0-0-0-0-0-0-0-0-0-0-0-0-0-0-0-0-0-0-0-0-0-0-0-0-0-0-0-0-0-0-0-0-- repeat

Verses:
[ Tab from: http://www.guitartabs.cc/tabs/p/placebo/nancy_boy_tab_ver_3.html ]
-------------------------------------|---------------------------------------
-------------------------------------|---------------------------------------
-------------------------------------|--6-6-6-6-6-6-6-6-6-6-6-6-6-6-6-6-6----
--6-6-6-6-6-6-6-6-6-6-6-6-6-6-6-6-6--|--7-7-7-7-7-7-7-7-7-7-7-7-7-7-7-7-7-0--
--7-7-7-7-7-7-7-7-7-7-7-7-7-7-7-7-7--|--0-0-0-0-0-0-0-0-0-0-0-0-0-0-0-0-0-0--
--0-0-0-0-0-0-0-0-0-0-0-0-0-0-0-0-0--|------------------------------------0--

Chorus:

--------------------------
--------------------------
--9-9-9-9-9-9-9-12-12-12--
--9-9-9-9-9-9-9-12-12-12--
--7-7-7-7-7-7-7-10-10-10--
--------------------------

-------------------------------------------------------------------------
-------------------------------------------------------------------------
-------------------------------------------------------------------------
9-9-9-9-9-9-9-9-9-9-9-9-9-8-8-8-8-8-8-8-8-8-8-7-7-7-7-7-7-7-7-7-7-7-7-7--
9-9-9-9-9-9-9-9-9-9-9-9-9-8-8-8-8-8-8-8-8-8-8-7-7-7-7-7-7-7-7-7-7-7-7-7--
7-7-7-7-7-7-7-7-7-7-7-7-7-6-6-6-6-6-6-6-6-6-6-5-5-5-5-5-5-5-5-5-5-5-5-5--


Comments