Placebo - My Sweet Prince Chords & Tabs

 

My Sweet Prince Chords & Tabs

Placebo Chords & Tabs

Version: 3 Type: Bass Tab 0 ratings
1 star 2 stars 3 stars 4 stars 5 stars
comments

My Sweet Prince Bass Tab

bass cums in at 0:23

note: i have only put the time at the top  for a little while just to give u an idea 
to play


                                                            0:23-ish
------------------|------------------|------------------|-------------------|
------------------|------------------|------------------|-------------------|
------------------|------------------|------------------|--0----------------|
------------------|------------------|------------------|-------------------|


                                        0:29
------------------|------------------|-------------------|------------------|
------------------|------------------|-------------------|------------------|
------------------|------------------|--4----------------|------------------|
------------------|------------------|-------------------|------------------|


                     0:35
------------------|-------------------|------------------|------------------|
------------------|-------------------|------------------|------------------|
------------------|--3----------------|------------------|------------------|
------------------|-------------------|------------------|------------------|


     0:41                                                    0:47
-------------------|------------------|------------------|-------------------|
-------------------|------------------|------------------|-------------------|
--4----------------|------------------|------------------|--0----------------|
-------------------|------------------|------------------|-------------------|


                                          0:53                 0:57
------------------|------------------|-------------------|-------------------|
------------------|------------------|-------------------|-------------------|
------------------|------------------|-------------------|-------------------|
------------------|------------------|--0----------------|----------0--------|


                     0:59                     1:02
------------------|-------------------|-------------------|------------------|
------------------|-------------------|-------------------|------------------|
------------------|--0----------------|----------0--------|------------------|
------------------|-------------------|-------------------|------------------|


    1:05                   1:08                              1:11
-------------------|-------------------|------------------|-------------------|
-------------------|-------------------|------------------|-------------------|
-------------------|-------------------|------------------|--0----------------|
--0----------------|----------0--------|------------------|-------------------|


        1:14                              1:17
-------------------|------------------|-------------------|------------------|
-------------------|------------------|-------------------|------------------|
----------0--------|------------------|--4----------------|------------------|
-------------------|------------------|-------------------|------------------|


                      1:23
------------------|-------------------|------------------|------------------|
------------------|-------------------|------------------|------------------|
------------------|--3----------------|------------------|------------------|
------------------|-------------------|------------------|------------------|


 1:29                                                       1:36
-------------------|------------------|------------------|-------------------|
-------------------|------------------|------------------|-------------------|
--4----------------|------------------|------------------|--3----------------|
-------------------|------------------|------------------|-------------------|


                                          1:41
------------------|------------------|-------------------|------------------|
------------------|------------------|-------------------|------------------|
------------------|------------------|--4----------------|------------------|
------------------|------------------|-------------------|------------------|


 this fill starts at 1:45
----------------------|--------------------|------------------|
-----------6----11----|--10----------------|------------------|
------8---------------|--------------------|------------------|
----------------------|--------------------|------------------|


              1:53   1:54
-------------------|-------------------|------------------|------------------|
-------------------|-------------------|------------------|------------------|
--------------3----|--4----------------|------------------|------------------|
-------------------|-------------------|------------------|------------------|


    1:59                                           2:04     2:05
-------------------|------------------|-------------------|-------------------|
-------------------|------------------|-------------------|-------------------|
--0----------------|------------------|--------------2----|-------------------|
-------------------|------------------|-------------------|--0----------------|


     2:08                               2:11                         2:14
-------------------|------------------|-------------------|-------------------|
-------------------|------------------|-------------------|-------------------|
-------------------|------------------|--0----------------|----------0--------|
----------0--------|------------------|-------------------|-------------------|


both at 2:16  v       v                          2:20
-------------------|-------------------|-------------------|-------------------|
-------------------|-------------------|-------------------|-------------------|
--------------2----|-------------------|-------------------|-------------------|
-------------------|--0----------------|----------0--------|-------------------|


  2:24                      2:27                            2:29
-------------------|-------------------|------------------|-------------------|
-------------------|-------------------|------------------|-------------------|
--0----------------|----------0--------|------------------|--4----------------|
-------------------|-------------------|------------------|-------------------|

------------------|------------------|-------------------|------------------|
------------------|------------------|-------------------|------------------|
------------------|------------------|--3----------------|------------------|
------------------|------------------|-------------------|------------------|

-------------------|-------------------|------------------|-------------------|
-------------------|-------------------|------------------|-------------------|
--------------3----|--4----------------|------------------|--------------4----|
-------------------|-------------------|------------------|-------------------|
[ Tab from: http://www.guitartabs.cc/tabs/p/placebo/my_sweet_prince_btab_ver_3.html ]
-------------------|------------------|--------------------|
-------------------|------------------|--------------------|
--0----------------|------------------|----------0----2----|
-------------------|------------------|--------------------|

--------------------|-------------------|--------------------|
--------------------|-------------------|--------------------|
--------------------|-------------------|---------------2----|
--0------------0----|----------0--------|------0-------------|

--------------------|-------------------|---------------------|
--------------------|-------------------|---------------------|
--0------------0----|----------0--------|------0---------2----|
--------------------|-------------------|-----------4---------|

--------------------|-------------------|-------------------|
--------------------|-------------------|-------------------|
--------------------|-------------------|-------------------|
--0------------0----|----------0--------|------0------------|

--------------------|-------------------|-------------------|
--------------------|-------------------|-------------------|
--0------------0----|----------0--------|------0------------|
--------------------|-------------------|-------------------|

-------------------|------------------|------------------|-------------------|
-------------------|------------------|------------------|-------------------|
--4----------------|------------------|------------------|--3----------------|
-------------------|------------------|------------------|-------------------|

------------------|-------------------|-------------------|------------------|
------------------|-------------------|-------------------|------------------|
------------------|--------------3----|--4----------------|------------------|
------------------|-------------------|-------------------|------------------|

---------------------|-------------------|------------------|
---------------11----|-------------------|------------------|
------7--------------|--0----------------|------------------|
---------------------|-------------------|------------------|

--------------------|--------------------|-------------------|
--------------------|--------------------|-------------------|
----------0----2----|--------------------|-------------------|
--------------------|--0------------0----|----------0--------|

--------------------|--------------------|-------------------|
--------------------|--------------------|-------------------|
---------------2----|--0------------0----|----------0--------|
------0-------------|--------------------|-------------------|

---------------------|--------------------|-------------------|
---------------------|--------------------|-------------------|
------0---------2----|--------------------|-------------------|
-----------4---------|--0------------0----|----------0--------|

--------------------|--------------------|-------------------|
--------------------|--------------------|-------------------|
---------------2----|--0------------0----|----------0--------|
------0-------------|--------------------|-------------------|

-------------------|-------------------|------------------|------------------|
-------------------|-------------------|------------------|------------------|
------0------------|--4----------------|------------------|------------------|
-------------------|-------------------|------------------|------------------|

-------------------|------------------|------------------|-------------------|
-------------------|------------------|------------------|-------------------|
--3----------------|------------------|------------------|--4----------------|
-------------------|------------------|------------------|-------------------|

------------------|---------------------|-------------------|------------------|
------------------|---------------11----|-------------------|------------------|
------------------|------7--------------|--0----------------|------------------|
------------------|---------------------|-------------------|------------------|

-------------------|--------------------|-------------------|
-------------------|--------------------|-------------------|
--------------2----|--------------------|-------------------|
-------------------|--0------------0----|----------0--------|

---------------------|--------------------|-------------------|
---------------------|--------------------|-------------------|
-----------2----4----|--0------------0----|----------0--------|
------0--------------|--------------------|-------------------|

---------------------|--------------------|-------------------|
---------------------|--------------------|-------------------|
------0---------2----|--------------------|-------------------|
-----------4---------|--0------------0----|----------0--------|

--------------------|--------------------|-------------------|
--------------------|--------------------|-------------------|
---------------2----|--0------------0----|----------0--------|
------0-------------|--------------------|-------------------|

---------------------|--------------------|-------------------|
---------------------|--------------------|-------------------|
------0---------2----|--------------------|-------------------|
-----------4---------|--0------------0----|----------0--------|

---------------------|--------------------|-------------------|
---------------------|--------------------|-------------------|
-----------2----4----|--0------------0----|----------0--------|
------0--------------|--------------------|-------------------|

---------------------|--------------------|-------------------|
---------------------|--------------------|-------------------|
------0---------2----|--------------------|-------------------|
-----------4---------|--0------------0----|----------0--------|

---------------------|--------------------|-------------------|
---------------------|--------------------|-------------------|
-----------2----4----|--0------------0----|----------0--------|
------0--------------|--------------------|-------------------|

-------------------|-------------------|------------------|------------------|
-------------------|-------------------|------------------|------------------|
------0------------|--4----------------|------------------|------------------|
-------------------|-------------------|------------------|------------------|

-------------------|------------------|------------------|-------------------|
-------------------|------------------|------------------|-------------------|
--3----------------|------------------|------------------|--4----------------|
-------------------|------------------|------------------|-------------------|

------------------|------------------|-------------------|------------------|
------------------|------------------|-------------------|------------------|
------------------|------------------|--3----------------|------------------|
------------------|------------------|-------------------|------------------|

------------------||
------------------||
------------------||
------------------||
Comments