Placebo - Miss Moneypenny Chords & Tabs

 

Miss Moneypenny Chords & Tabs

Placebo Chords & Tabs

Version: 3 Type: Tab 0 ratings
1 star 2 stars 3 stars 4 stars 5 stars
comments

Miss Moneypenny Tab

                              Placebo
                          Miss Moneypenny

tabbed by: linx_b9

Capo 1st Fret

Intro
E-----------------------------------------------|
B-----------------------------------------------|
G----2-2-22-4-44-4-5-55-5-4-44-4----------------|
D----2-2-22-3-33-3-4-44-4-3-33-3---x4-----------|
A----0-0-00-0-00-0-0-00-0-0-00-0----------------|
E-----------------------------------------------|

Verse
E----0---0---0---0----|
B----0---0---0---0----|
G----2---2---2---2----|
D----2---2---2---2----|
A----0---0---0---0----|
E---------------------|

Chorus
E-----------------------------------------------|
B-----------------------------------------------|
G----2-2-22-4-44-4-5-55-5-4-44-4----------------|
D----2-2-22-3-33-3-4-44-4-3-33-3---x4-----------|
A----0-0-00-0-00-0-0-00-0-0-00-0----------------|
E-----------------------------------------------|
[ Tab from: http://www.guitartabs.cc/tabs/p/placebo/miss_moneypenny_tab_ver_3.html ]
Bridge
E-------------------------------------------------------------------------------|
B-----------------------------3-3-3-3-------------------------3-3-3-3-----------|
G---------------------2-2-2-2-2-2-2-2---------5-5-5-5-2-2-2-2-2-2-2-2--x2-------|
D-----3-3-3-3-3-3-3-3-2-2-2-2-0-0-0-0-3-3-3-3-5-5-5-5-2-2-2-2-0-0-0-0-----------|
A-----3-3-3-3-3-3-3-3-0-0-0-0---------3-3-3-3-3-3-3-3-0-0-0-0-------------------|
E-----1-1-1-1-1-1-1-1-----------------1-1-1-1-----------------------------------|

construction: intro
              verse
              chorus
              verse
              chorus
              bridge
              chorus

lyrics

Penance for his sin, he locked in it for just a little while]
Lubricating creams, sanitaries would only cramp his syle
It's a dirty job but shooting guns just makes you horny
Wants to spill his seed on guaranteed service with a smile

Miss Moneypenny
Miss Moneypenny
Oh
Miss Moneypenny
Miss Moneypenny
Oh

Pitter patter of the eyelid, on the first roll of the dice
Feel the atmosphere, it's gently laced with nicotene and spice
Its a long walk home, the entrance of the night is scary
Only trouble is, he never learned to shoot the same gun twice

Miss Moneypenny
Miss Moneypenny
Oh
Miss Moneypenny
Miss Moneypenny
Oh

Every job he saves the girl
Martini, mobile phone
Bastard's getting in his way
They're all pushing daisies

All you need to make a movie is a gun and a girl
0898 007 (repeat)
Comments