Placebo - Meds Chords & Tabs

 

Meds Chords & Tabs

Placebo Chords & Tabs

Version: 3 Type: Tab

Meds Tab

----------------------------------------------------------------------------
			     SONG NAME - Band Name
----------------------------------------------------------------------------
Tabbed by: Stumaster18
Email: ????

Tuning: Standard
 
Intro: Played Cleanly (Twice)
e|-------------------------------------------------------------------------|
B|-888-8-8-8-8-8-8---------------------------------------------------------|
G|-999-9-9-9-9-9-9--444-4-4-4-4-4-4---9-9-9--9--9--9--9--9--9--888-888888--|
D|-999-9-9-9-9-9-9--555-5-5-5-5-5-5--101010-10-10-10-10-10-10--999-999999--|
A|-777-7-7-7-7-7-7--555-5-5-5-5-5-5--101010-10-10-10-10-10-10--999-999999--|
E|------------------333-3-3-3-3-3-3---8-8-8--8--8--8--8--8--8--777-777777--|
[ Tab from: http://www.guitartabs.cc/tabs/p/placebo/meds_tab_ver_3.html ]
Verse: Distortionized
e|-------------------------------------------------------------------------|
B|-888-8-8-8-8-8-8---------------------------------------------------------|
G|-999-9-9-9-9-9-9--444-4-4-4-4-4-4---9-9-9--9--9--9--9--9--9--888-888888--|
D|-999-9-9-9-9-9-9--555-5-5-5-5-5-5--101010-10-10-10-10-10-10--999-999999--|
A|-777-7-7-7-7-7-7--555-5-5-5-5-5-5--101010-10-10-10-10-10-10--999-999999--|
E|------------------333-3-3-3-3-3-3---8-8-8--8--8--8--8--8--8--777-777777--|

Chorus: Distortionized
e|-------------------------------------------------------------------------|
B|-888-8-8-8-8-8-8---------------------------------------------------------|
G|-999-9-9-9-9-9-9--444-4-4-4-4-4-4---9-9-9--9--9--9--9--9--9--888-888888--|
D|-999-9-9-9-9-9-9--555-5-5-5-5-5-5--101010-10-10-10-10-10-10--999-999999--|
A|-777-7-7-7-7-7-7--555-5-5-5-5-5-5--101010-10-10-10-10-10-10--999-999999--|
E|------------------333-3-3-3-3-3-3---8-8-8--8--8--8--8--8--8--777-777777--|

Interlude: 
e|--------------------------------------------|
B|-10-10-10-10-11-11-11-10-10-10-10-13-13-13--|
G|-11-11-11-11-12-12-12-11-11-11-11-14-14-14--|
D|--x--x--x--x--x--x--x--x--x--x--x--x--x--x--|
A|--9--9--9--9-10-10-10--9--9--9--9-12-12-12--|
E|--------------------------------------------|

Chorus

Outro (same as Intro; finish on first power-chord)

Hope you enjoy this.