Placebo - Meds Chords & Tabs

 

Meds Chords & Tabs

Placebo Chords & Tabs

Version: 2 Type: Tab

Meds Tab

   
-------------------------------------------------------------------------------
			     MEDS. - Placebo
-------------------------------------------------------------------------------
Tabbed by: De Stino
Email: vivalaons@scarlet.be
Tuning: eBGDAE
Comment: It's certainly not right but it's only my first version. And in the main riff 
in power chords
but I think they're chords but I dont know them so.


Main riff (play throughout song):

e|---------------------------------------------------------------------------|
B|---------------------------------------------------------------------------|
G|-9-//------5-//-4-//-------------------------------------------------------|
D|-9-//-5-//-5-//-2-//-------------------------------------------------------|
A|-7-//-5-//-3-//-2-//-------------------------------------------------------|
E|------3-//-----------------------------------------------------------------|

[ Tab from: http://www.guitartabs.cc/tabs/p/placebo/meds_tab_ver_2.html ]
Chorus: above the main riff
e|---------------------------------------------------------------------------|
B|---------------------------------------------------------------------------|
G|---------------------------------------------------------------------------|
D|-4h5-5-5-5-4-4-4-4-7-7-7-7-4-4-4-------------------------------------------|
A|---------------------------------------------------------------------------|
E|---------------------------------------------------------------------------|

For the 2nd riff you have to add some effect to the main riff.

And then just do the same throughout the song and in the interlude you can add a freak 
like on the track.

Sex, drugs and complicitions part:
e|---------------------------------------------------------------------------|
B|-7h8-8-8-8-7-7-7-7-10-10-10-10-7-7-7---------------------------------------|
G|---------------------------------------------------------------------------|
D|---------------------------------------------------------------------------|
A|---------------------------------------------------------------------------|
E|---------------------------------------------------------------------------|

| /  slide up
| \  slide down
| h  hammer-on
| p  pull-off
| ~  vibrato
| +  harmonic
| x  Mute note
===============================================================================