Placebo - Lady Of The Flowers Chords & Tabs

 

Lady Of The Flowers Chords & Tabs

Placebo Chords & Tabs

Version: 2 Type: Tab 0 ratings
1 star 2 stars 3 stars 4 stars 5 stars
comments

Lady Of The Flowers Tab

        

                  :: PLACEBO - lady of the flowers ::


Tabbed by Daniel Rodríguez Paz
e-mail: nopuedoverte@hotmail.com


CHALE, esta cancion la tuve que sacar porque todas las que encontraba estaban mal o con
afinaciones que con solo verlas dan hueva, por eso yo hice la mia con afinacion normal y
esta 100% bien. nomas suban la 3ra cuerda medio tono, a sol# batos locos, porque sino no
se oye como debe ser, esto es para poder tocar bien el coro.

To play right this song, you have to change the 3rd string from G to G#, because of the chorus.
This song is very easy, i hope you don´t have problems.


INTRO
[ Tab from: http://www.guitartabs.cc/tabs/p/placebo/lady_of_the_flowers_tab_ver_2.html ]
 e|------------------------------------|
 B|------------------------------------| 
G#|--------4--5--4--------4--5--4------|
 D|-----3-----3---------3----3---------|
 A|--4--------4-------4------4-----1---|
 E|------------------------------------|

This repeats all the song.

 e|----------------------------|
 B|----------------------------|
G#|----5--4--------4—-5--4-----|
 D|----3--------3-----3--------|
 A|----4-----4--------4-----1--|
 E|----------------------------|

Chorus:

 e|--------------------------------------------------------------|
 B|----3--3--3--3---3--3--3--3--3---3--3--3—-3-------------------|
G#|----3--3--3--0---0--3—-3--3—-0---0--3--3--3---5-5--5-5--5-5-5-|
 D|----4--4--4--4---4--4--4--4--4---4--4--4--4---6-6--6-6--6-6-6-|
 A|----4--4--4--4---4--4--4--4--4---4--4--4--4---4-4--4-4--4-4-4-|
 E|--------------------------------------------------------------|


what a fucking great song!!
Comments