Placebo - Innocence Of Sleep Chords & Tabs

 

Innocence Of Sleep Chords & Tabs

Placebo Chords & Tabs

Version: 1 Type: Tab 0 ratings
1 star 2 stars 3 stars 4 stars 5 stars
comments

Innocence Of Sleep Tab

This is the guitar tab for 'Innocence of Sleep' which is one of
Placebo's many B-sides. I recommend you check it out if you have 
never heard it. If you have any questions or comments, you can email
me at bborred@hotmail.com


The first part is the bass riff that repeats throughout the whole song:
[ Tab from: http://www.guitartabs.cc/tabs/p/placebo/innocence_of_sleep_tab.html ]
|---------------------------------------------------|
|---------------------------------------------------|
|---------------------------------------------------|
|---------------------------------------------------|
|-15-15-15-15-15-15-15-15---11-11-11-11-11-11-11-11-|
|---------------------------------------------------|


Then the guitar comes in with:

|---9---------6-|
|-9---------6---|
|-----5---------|
|---------------|
|---------------|
|---------------|


This is followed by:

  x6 x2  x6 x2  x6 x2  x6 x2   x6 x2  x6 x2  x6 x2
|----11------8-----13-----11------11------8-----13-|
|----11------8-----13-----11------11------8-----13-|
|-13-13--10-10--15-15--13-13---13-13--10-10--15-15-|
|-13-----10-----15-----13------13-----10-----15----|
|-11------8-----13-----11------11------8-----13----|
|-11------8-----13-----11------11------8-----13----|

Comments