Placebo - Ill Be Yours Chords & Tabs

 

Ill Be Yours Chords & Tabs

Placebo Chords & Tabs

Version: 1 Type: Tab 0 ratings
1 star 2 stars 3 stars 4 stars 5 stars
comments

Ill Be Yours Tab

   
Title:	I'll Be Yours
Artist:	Placebo
Album:	Sleeping With Ghosts

Tuning:		F A# D# G# C C
Tabbed By:	Daniel Brits (daniel_b11@hotmail.com)

Intro:
C |-----------------------------------------------------------------|
C |-----------------------------------------------------------------|
G#|-----------------------------------------------------------------|
D#|-------------------------------------------------5-3-------------|
A#|-5-5-5-5-5-5-5-5-3-5-5-5-5-5-5-5-5-5-5-5-5-5-5-5-----5-5-5-5-5-5-|
F |-----------------------------------------------------------------|


Verse: (play once before 2nd verse i.e. 5x instead of 4x on 2nd verse)
C |-----------------------------------------------------------------|
C |-----------------------------------------------------------------|
G#|-----------------------------------------------------------------|
D#|-------------------------------------------------5-3-------------| (x4)
A#|-3-5-5-5-5-5-5-5-5-5-5-5-5-5-5-5-3-5-5-5-5-5-5-5-----5-5-5-5-5-5-|
F |-----------------------------------------------------------------|

[ Tab from: http://www.guitartabs.cc/tabs/p/placebo/ill_be_yours_tab.html ]
Chorus:
C |-----------------------------------------------------------------|
C |-----------------------------------------------------------------|
G#|-----------------------------------------------------------------|
D#|-----------------------------------------------------------------|
A#|-3-5-5-5-5-5-5-5-7-7-7-7-7-7-7-7-8-8-8-8-8-8-8-8-8-8-8-8-8-8-8-8-|
F |-----------------------------------------------------------------|

C |-----------------------------------------------------------------------------|
C |-----------------------------------------------------------------------------|
G#|-----------------------------------------------------------------------------|
D#|-----------------------------------------------------------------------------|
A#|-5-5-5-5-5-5-5-5-7-7-7-7-7-7-7-7-13-13-13-13-13-13-13-13-8-8-8-8-8-8-8-8-(5)-|
F |-----------------------------------------------------------------------------|


Pre-Verse/Post-Chorus (only after 1st chorus):
C |---------------------|
C |---------------------|
G#|-14-19--14-12--------|
D#|---------------10-12-|
A#|---------------------|
F |---------------------|


Outro:
C |------------------|
C |------------------|
G#|------------------|
D#|-7-5-7-3-5-3-5-8--| (x3)
# |------------------|
F |------------------|

C |------------------|
C |------------------|
G#|------------------|
D#|-7-5-7-3-5-3-2-12-|
A#|------------------|
F |------------------|
Comments