Placebo - Hang On To Your Iq Chords & Tabs

 

Hang On To Your Iq Chords & Tabs

Placebo Chords & Tabs

Version: 1 Type: Tab 0 ratings
1 star 2 stars 3 stars 4 stars 5 stars
comments

Hang On To Your Iq Tab

   
Artist:		Placebo
Title:		Hang On To Your IQ
Album:		Placebo
Tuning:		F A# D# G# C C
Tabbed by:	Daniel Brits	(daniel_b11@hotmail.com)

||INTRO||
C |-------------------------------------|
C |-------------------------------------|
G#|-4--6--0-----------4--6--0-----------|
D#|----------7-7-7-7-----------7-7-7-7--|
A#|-------------------------------------|
F |-------------------------------------|

C |-------------------------------------------------|
C |-------------------------------------------------|
G#|-4--6--0-----------------------------------------|
D#|----------2-2-2-2-2-2-2-2--5-/7-/5--5--/3-/5-/3--|
A#|-------------------------------------------------|
F |-------------------------------------------------|

C |-------------------------------------|
C |-------------------------------------|
G#|-4--6--0-----------4--6--0-----------|
D#|----------7-7-7-7-----------7-7-7-7--|
A#|-------------------------------------|
F |-------------------------------------|

C |----------------------------------------------------------|
C |----------------------------------------------------------|
G#|-4--6--0--------------------------------------------------|
D#|----------2-2-2-2-2-2-2-2--5-/7-/5~~~~~-5-/7-/9-/10-/9~~--|
A#|----------------------------------------------------------|
F |----------------------------------------------------------|

||VERSE||
C |----------------------------------------------------|
C |----------------------------------------------------|
G#|-4--6--0-------------------4--6--0------------------|
D#|----------7-7-7-7-7-7-7-7-----------7-7-7-7-7-7-7-7-|
A#|----------------------------------------------------|
F |----------------------------------------------------|

C |-------------------------------------------------|
C |-------------------------------------------------|
G#|-4--6--0-----------------------------------------|
D#|----------2-2-2-2-2-2-2-2-2-2-2-2-2-2-2-2--------|
A#|-------------------------------------------------|
F |-------------------------------------------------|

||CHORUS||
   Hang on, on, on;   Hang on..................
C |-----------------------------------------------------------------|
C |-----------------------------------------------------------------|
G#|-----------------------------------------------------------------|
D#|-7-7-7-7-7-7-7-7-9-9-9-9-7-7-7-7-2-2-2-2-2-2-2-2-2-2-2-2-2-2-2-2-|
A#|-----------------------------------------------------------------|
F |-----------------------------------------------------------------|
[ Tab from: http://www.guitartabs.cc/tabs/p/placebo/hang_on_to_your_iq_tab.html ]
||POST CHORUS|| with distortion
C |-----------------------------------------------|
C |-----------------------------------------------|
G#|-11-11-11-11--14--14--14--14---18--18--18--18--|
D#|-0--0--0--0---0---0---0---0----0---0---0---0---|
A#|-9--9--9--9---12--12--12--12---16--16--16--16--|
F |-----------------------------------------------|
	I'm lonely		I'm lonely
C |------------------------------------------------------------|
C |------------------------------------------------------------|
G#|-11-11-11-11-/-12-12-12-12--7-7-7-7--11-/-12-12-12-12--7~~~-|
D#|-0--0--0--0--/-0--0--0--0---0-0-0-0--0--/-0--0--0--0---0~~~-|
A#|-9--9--9--9--/-10-10-10-10--5-5-5-5--9--/-10-10-10-10--5~~~-|
F |------------------------------------------------------------|

C |-----------------------------------------------|
C |-----------------------------------------------|
G#|-11-11-11-11--14--14--14--14---18--18--18--18--|
D#|-0--0--0--0---0---0---0---0----0---0---0---0---|
A#|-9--9--9--9---12--12--12--12---16--16--16--16--|
F |-----------------------------------------------|
	I'm lonely		I'm lonely
C |-------------------------------------------------|
C |-------------------------------------------------|
G#|-11-11-11-11-/-12-12-12-12--7-7-7-7--11-/-12-~~~-|
D#|-0--0--0--0--/-0--0--0--0---0-0-0-0--0--/-0--~~~-|
A#|-9--9--9--9--/-10-10-10-10--5-5-5-5--9--/-10-~~~-|
F |-------------------------------------------------|

||BRIDGE||with distortion
  aah..
C |-------------------------------------------------------|
C |-------------------------------------------------------|
G#|-------------------------------------------------------|
D#|-11-11-11-11--14-14-14-14-14-14---7-7-7-7--9-9-9-9-9-9-|
A#|-------------------------------------------------------|
F |-------------------------------------------------------|

C |-----------------------------------------------------|
C |-----------------------------------------------------|
G#|-----------------------------------------------------|
D#|-11-11-11-11--16-16-16-16-16-16-7-7-7-7--9-9-9-9-9-9-|
A#|-----------------------------------------------------|
F |-----------------------------------------------------|

C |---------------------------------------|
C |---------------------------------------|
G#|---------------------------------------|
D#|-11-11-11-11--16-16-16-16--19-19-19-19-|
A#|---------------------------------------|
F |---------------------------------------|

C |-----------------------------------------------------|
C |-----------------------------------------------------|
G#|-----------------------------------------------------|
D#|-11-11-11-11--14-14-14-14-14-14--7-7-7-7--9-9-9-9-7-7|
A#|-----------------------------------------------------|
F |-----------------------------------------------------|

C |-----------------------------------------------------------|
C |-----------------------------------------------------------|
G#|-----------------------------------------------------------|
D#|-2-2-2-2-2-2-2-2--2-2-2-2-2-2-2-2--2-2-2-2-2-2-2-2--2~~~~--|
A#|-----------------------------------------------------------|
F |-----------------------------------------------------------|

||END||
C |-----------------|
C |-----------------|
G#|--4--6--0--------|
D#|-----------2~~~--|
A#|-----------------|
F |-----------------|
Comments