Placebo - Hang On To Your Iq Chords & Tabs

 

Hang On To Your Iq Chords & Tabs

Placebo Chords & Tabs

Version: 2 Type: Bass Tab 0 ratings
1 star 2 stars 3 stars 4 stars 5 stars
comments

Hang On To Your Iq Bass Tab

PLACEBO:  HANG ON TO YOUR I.Q:   ( use normal tunning, assume normal 
tunning on all songs unless stated even though stef tunes his bass up 
half a step!!).

G--------------------------------------------------------------------
D-----------------15 ho 17 po 15---12 ho 14 po 12--------------
A--------------------------------------------------------------------
E--1 let ring..------------------------------------------------------

G--------------------------------------------------------------------
D--------------------------------------------------------------------
A-----------------------------------------------------6--------------
E--6-6-6--6-6-6--6-6-6---6-6-6--6-6-6--6-6-6-----1-1-1--1-1-1

G-----------------------------------------12--14 ho 15 po 14-----
D----------15 ho 17 po 15--12--15-------------------------------
A--------------------------------------------------------------------
E--1-1-1-------------------------------------------------------------

Normal Verse:

G--------------------------------------------------------------------
D--------------------------------------------------------------------
A--------------------------------------------------6----------------
E--6-6-6--6-6-6--6-6-6---6-6-6--6-6-6--6-6-------1-1-1--1-1-1

G--------------------------------------------------------------------
D--------------------------------------------------------------------
A--------------------------------------------------------------------
E--1-1-1---1-1-1--1-1-1--1-1-1---------------------------------

After playing the normal verse, play it under Brian while he sing the 
" hang on, hang on, to your i.q, to your i.d...." bit.
After all that theres another little riff which comes before the 
verse ( I would put down the lyrics so you would know what part I am 
on about but I can't understand what he sings. )

G--------------------------------------------------------------------
D--------5--------5-------------4----------------------------------
A---------------------------------------------------------5---------
E--3--3----3-3-3---3----2--2-----2--2--/-11---6--8------6--6-

G--------------------------------------------------------------------
D----------------------------------5--------5-------------4--------
A---------------5---------------------------------------------------
E--6--8--6--8-----6--6----3--3----3-3-3---3----2--2-----2--2--
[ Tab from: http://www.guitartabs.cc/tabs/p/placebo/hang_on_to_your_iq_btab_ver_2.html ]
G--------------------------------------------------------------------
D--------------------------------------------------------------------
A---------------5---------------------------------------------------
E--/-11--6--2-----6--6--6--8--6----------------------------------

After this go into the normal verse.  Repeat the bit above and go 
into the next part.  Just before you go into this, Brian sings " oh!"

Solo Part:

G--------------------------------------------------------------------
D--------------------------------------------------------------------
A--6-6-6--6-6-6--6--6-6-6-------------------------------6-6-6--
E--------------------------------6-6-6--6-6-6--6--6-6-6----------

G--------------------------------------------------------------------
D--------------------------------------------------------------------
A--6-6-6--6--6-6-6--------------------------------6--6-6-6-----
E-----------------------6-6-6--6-6-6--6--6-6-6------------------

G--------------------------------------------------------------------
D--7-7--7-7--7--5-5--8-8----------------------------------------
A-------------------------------------------------------------6-6---
E------------------------------6-6--6-6-6--6-6-6--6-6-6---------

G--------------------------------------------------------------------
D--------------------------------------------------------------------
A--6-6-6--6-6--6--6-6-6-----------------------------------------
E-----------------------------6-6-6--6--6-6-6--6-6-6--5-6--6-6-6

G--------------------------------------------------------------------
D--------------------------------------------------------------------
A--------------------------------------------------------------------
E--6--6-6-6--6-6-6--5-6--6-6-6--6--6-6-6--6-6-6--5-6-------

Phew! back into the verse and after that play the part in which 
Brian sings something like " I'm right here, I'm right here."  
Finally do the solo part to end up with.  You'll have to work out 
the order of the parts if you don't understand what goes when but it 
isn't hard.
Its easier to use a capo on this song ( at the first fret ) , 
especially with the beginning but I wouldn't bother as changing from 
the first fret to the 15th as after a while it becomes fairly simple.
( consequently, Stef always has his guitar tuned up half a step but 
its just as easy to play using E A D G.

                         Ian Edwards  97dsac44@reaseheath.ac.uk

Comments