Placebo - Eyesight To The Blind Chords & Tabs

 

Eyesight To The Blind Chords & Tabs

Placebo Chords & Tabs

Version: 1 Type: Tab 0 ratings
1 star 2 stars 3 stars 4 stars 5 stars
comments

Eyesight To The Blind Tab

   
This is yet another one of Placebo's B-sides. There are actually two
versions of this song. There's the normal studio version and there is
a demo version that is slightly different. If you haven't heard either,
I recommend you check them out. Any questions, comments, or suggestions
can be sent to bborred@hotmail.com


Part A:

|-3-3-3-0-0-0-0-3-0-0-0-0-|
|-1-1-1-1-1-1-1-1-1-0-3-0-|
|-2-2-2-2-2-2-2-2-2-2-2-2-|
|-3-3-3-3-3-3-3-3-3-3-3-3-|
|-0-0-0-0-0-0-0-0-0-0-0-0-|
|-------------------------|

Part B:

 x8 x8
|------|
|------|
|-0--0-|
|-2--4-|
|-3--5-|
|------|

Part C:

 x8 x8
|------|
|------|
|-4--2-|
|-5--3-|
|-5--3-|
|-3--1-|

Only the demo version has a solo in it but here it is:
[ Tab from: http://www.guitartabs.cc/tabs/p/placebo/eyesight_to_the_blind_tab.html ]
|-15-15-15-12--15-12----------|-15-15-15-12--15-12---------------------------|
|--------------------12h13----|--------------------12h13-----12-----------12-|
|--------------------------12-|--------------------------12-----12--------12-|
|-----------------------------|------------------------------------12-----12-|
|-----------------------------|---------------------------------------12--12-|
|-----------------------------|----------------------------------------------|

|-15-15-15-12-18-18-18-18-18-|-12h13p12--------------------|
|----------------------------|----------13-12--12----12-15-|
|----------------------------|--------------------13-------|
|----------------------------|-----------------------------|
|----------------------------|-----------------------------|
|----------------------------|-----------------------------|
Comments