Placebo - Every You Every Me Chords & Tabs

 

Every You Every Me Chords & Tabs

Placebo Chords & Tabs

Version: 7 Type: Tab 0 ratings
1 star 2 stars 3 stars 4 stars 5 stars
comments

Every You Every Me Tab

Title: every me and every you
Artist: placebo
Tabb BY: Daniel "Arnni" Greenwood
comments: one of the first songs i learn't to play :)
Big shout out to one of the biggest fans of placebo AnnA
also big shouts to ben and locker 42 

\m/ ROCK ON \m/ 

Standard tuning for a change :)

intro/verse

e|-------------------------------------------------------------------|
B|-------------------------------------------------------------------|
G|----999-----999--9-------------------------------------------------|
D|----999-----999--9-------------------------------------------------|
A|----777-----777--7-------------------------------------------------|
E|------------888--9-------------------------------------------------|


Chorus


e|--------------------------------------------------------------------|
B|--------------------------------------------------------------------|
G|-3------------------------8----------------------------------3------|
D|-3------------------------8----------------------------------3------|
A|-1------------------------6----------------------------------1------|
E|------------------------------------------------------------------=-|
 Carve your name into my arm, Instead of stressed I lie here charmed
[ Tab from: http://www.guitartabs.cc/tabs/p/placebo/every_you_every_me_tab_ver_7.html ]
e|--------------------------------------------------------------------|
B|--------------------------------------------------------------------|
G|3-------------------------------------------------8-----------------|
D|3---------------------------3--------8------------8-----------------|
A|1---------------------------3--------8------------6-----------------|
E|----------------------------1--------6------------------------------|
'Cause there's nothing else to do, Every me and every you


verse 2
e|-------------------------------------------------------------------|
B|-------------------------------------------------------------------|
G|----999-----999--9-------------------------------------------------|
D|----999-----999--9-------------------------------------------------|
A|----777-----777--7-------------------------------------------------|
E|------------888--9-------------------------------------------------|

Chorus


e|--------------------------------------------------------------------|
B|--------------------------------------------------------------------|
G|-3------------------------8----------------------------------3------|
D|-3------------------------8----------------------------------3------|
A|-1------------------------6----------------------------------1------|
E|------------------------------------------------------------------=-|
 Carve your name into my arm, Instead of stressed I lie here charmed

e|--------------------------------------------------------------------|
B|--------------------------------------------------------------------|
G|3-------------------------------------------------8-----------------|
D|3---------------------------3--------8------------8-----------------|
A|1---------------------------3--------8------------6-----------------|
E|----------------------------1--------6------------------------------|
'Cause there's nothing else to do, Every me and every you

-----------
hope ya like also More tabs coming soon by me :)
Comments