Placebo - Every You Every Me Chords & Tabs

 

Every You Every Me Chords & Tabs

Placebo Chords & Tabs

Version: 2 Type: Bass Tab 0 ratings
1 star 2 stars 3 stars 4 stars 5 stars
comments

Every You Every Me Bass Tab

   
Track: Every You Every Me
Artist: Placebo
Tuning: E, A, D, G

First Transcribed by Mark Gellatly (markgellatly@hotmail.com) and Victoria 
Dale.

Corrections by Dave Cork (reaperman9@hotmail.com)
There are some bass fills that I didn't tab because i think it should be to 
the player to add his
own improvisation and fills. Enjoy it!

Verse "Sucker love"

G|----------------------------------------------------------------------------------------|
D|----------------------------------------------------------------------------------------|
A|--5-5-5-5-5-5-5-0--1-1-1-0--3-3-3-0--5-5-5-5-5-5-5---1-1-1-0--3-3-3-3-------------------|
E|----------------------------------------------------------------------------------------|

Chorus Part 1 "Carve a name, In the shape, I serve my head"
[ Tab from: http://www.guitartabs.cc/tabs/p/placebo/every_you_every_me_btab_ver_2.html ]
G|---------------------------------------------------------------------------------------|
D|---------------------------------------------------------------------------------------|
A|--1-1-1-1-1-1-1-1-1-1-1-1-1-1-1-1--5-5-5-5-5-5-5-5-5-5-7h8-7h8-7h8---------------------|
E|---------------------------------------------------------------------------------------|

Chorus Part 2

G|---------------------------------------------------------------------------------------|
D|---------------------------------------------------------------------------------------|
A|--1-1-1-1-1-1-1-1-1-1-1-1-1-1-1-3------------------------------------------------------|
E|-----------------------------------1-1-1-1-1-1-1-1-5-5-5-5-5-5-5-5---------------------|

Song Structure

Guitar intro
Verse x2
Chorus Part 1 x1
Chorus Part 2 x1
Verse x2
Chorus Part 1 x1
Chorus Part 2 x2
Verse x2
Chorus Part 1 x1
Chorus Part 2 x3
Verse x2
Chorus Part 1 x1
Chorus Part 2 x7
Comments