Placebo - English Summer Rain Chords & Tabs

 

English Summer Rain Chords & Tabs

Placebo Chords & Tabs

Version: 1 Type: Bass Tab 0 ratings
1 star 2 stars 3 stars 4 stars 5 stars
comments

English Summer Rain Bass Tab

-----------------------------------------------------------------------------
			  English Summer Rain - Placebo
-----------------------------------------------------------------------------

Tabbed By : Mucebo
e-mail: schep_vreugde_en_leef@hotmail.com
[ Tab from: http://www.guitartabs.cc/tabs/p/placebo/english_summer_rain_btab.html ]
Tuning: standard
intro and the rest of the song:
G|---1-3---1-3---1-3---1-3---|
D|---------------------------| repeat this trough the whole song
A|-1-----1-------------------|
E|-------------2-----2-------|

when the drum stops playing in the middle of the song the bass plays this:
G|------------------------------------------------|
D|------------------------------------------------|
A|-1-1-1-1-1-1-1-1--------------------------------|
E|------------------2-2-2-2-2-2-2-2-2-------------|

you can choose yourself when you play the notes like this and when not, listen to
song and find it out! cheers!!!!
Comments