Placebo - Days Before You Came Chords & Tabs

 

Days Before You Came Chords & Tabs

Placebo Chords & Tabs

Version: 4 Type: Tab 0 ratings
1 star 2 stars 3 stars 4 stars 5 stars
comments

Days Before You Came Tab

   
----------------------------------------------------------------------------
			     DAYS BEFORE YOU CAME - Placebo
----------------------------------------------------------------------------
Tabbed by: Jesse Benedick
Email: JBMetal311@yahoo.com

Tuning: Standard
[ Tab from: http://www.guitartabs.cc/tabs/p/placebo/days_before_you_came_tab_ver_4.html ]
e|-------------------------------------------------------------------------|
B|-------------------------------------------------------------------------|
G|--6-6-6-6-6-6-6--5-5-5-5-5-5---------------------------------------------|
D|-------------------------------8-----7--8-----11--10---------------------|
A|-------------------------------9-----9--9-----9---9----------------------|
E|-------------------------------------------------------------------------|
 Riff 1                                (strum this part)
e|-------------------------------------------------------------------------|
B|-------------------------------------------------------------------------|
G|-------------------------------------------------------------------------|
D|---8-8-8-8-8-8--6-6-6-6-6-6-6--3-3-3-3-3-3-----------3-3-3-3-3-3---------|
A|-------------------------------------------------------------------------|
E|-------------------------------------------2-2-2/13--------------2-2-2/11|
 Riff 2
e|------------------------------|------------------------------------------|
B|--5-5-5--6-6-6--2-2-2--4-4-4--|------------------------------------------|
G|------------------------------|------------------------------------------|
D|------------------------------|--8-----7--8-----11--10-------------------|
A|------------------------------|--9-----9--9-----9---9--------------------|
E|------------------------------|------------------------------------------|
 Riff 3 (repeat twice)           then
e|--x------------------x---------------------------------------------------|
B|--x------------------x---------------------------------------------------|
G|--x-------5-6--------x-------5-6-----------------------------------------|
D|--x-------x-x--------x-------x-x-----------------------------------------|
A|--x-------3-4--------x-------3-4-----------------------------------------|
E|--x------------------x---------------------------------------------------|


| /  slide up
| \  slide down
| h  hammer-on
| p  pull-off
| ~  vibrato
| +  harmonic
| x  Mute note
============================================================================
Comments