Placebo - Commercial For Levi Chords & Tabs

 

Commercial For Levi Chords & Tabs

Placebo Chords & Tabs

Version: 1 Type: Tab 0 ratings
1 star 2 stars 3 stars 4 stars 5 stars
comments

Commercial For Levi Tab

   
F, Bb, Eb, G#, C, C.

Intro:

C  ------------------------------------------------------------------------------
C  ------------------------------------------------------------------------------
G# --------9--9--9-----------9-9-9/-13---------------9-9-9-9----------------11--9
Eb -9--11--0--0--0--9-9--11--0-0-0--0---9-9-9--11----0-0-0-0--9-9-9--11-----0---0
Bb -0--0------------0-0--0--------------0-0-0--0--------------0-0-0--0-----------
F  ------------------------------------------------------------------------------


"Sleep maybe the enemy..." bit
Keyboard notes:

D E F Bb Bb A G D E F Bb Bb A Bb 
[ Tab from: http://www.guitartabs.cc/tabs/p/placebo/commercial_for_levi_tab.html ]
C  ------------------------------------------------
C  ------------------------------------------------
G# --------------14-13-11----------------14-13--14-
Eb -11-12-14-----0--0--0----11-12-14-----0--0---0--
Bb -0--0--0--0--------------0--0--0---0------------
F  ------------------------------------------------


"I understand the facination..."

C  ---------------------------------------------------------------
C  ---------------------------------------------------------------
G# -----------------------------11-11---------11-11--9-9-9--7-7-7-
Eb -12-12-11--11--11-11--12-11--11-11--12-11--11-11--9-9-9--7-7-7-
Bb -0--0--9---9---9--9---0--0---9--9---0--0---9--9---7-7-7--5-5-5-
F  ---------------------------------------------------------------

"Please don't die..."

C  -----------------------------------------------------------------------------------
C  -----------------------------------------------------------------------------------
G# --------------7-7-7-7---------------7-7-7-7---------------7-7-7-7------------------
Eb -11-11-11-11--0-0-0-0--11-11-11-11--0-0-0-0--11-11-11-11--0-0-0-0---7-7-7-7---11-12
Bb -0--0--0--0------------0--0--0--0------------0--0--0--0-------------7-7-7-7--------
F  -----------------------------------------------------------------------------------
Comments