Placebo - Burger Queen Chords & Tabs

 

Burger Queen Chords & Tabs

Placebo Chords & Tabs

Version: 2 Type: Tab 0 ratings
1 star 2 stars 3 stars 4 stars 5 stars
comments

Burger Queen Tab

Placebo - Burger Queen

PART 1.......
eb|-------------------|------------------|----------------|----------------|
Bb|-------------------|------------------|----------------|----------------|
Gb|-------------------|------------------|----------------|----------------|
Db|-------------------|------------------|----------------|----------------|
Ab|--4---4---5---4----|-----4-4---4--4---|--0--0-0-----0--|--0--0----0--0--|
Eb|--5---5---5---5----|-----5-5---5--5---|--2--2-2-/s/-5--|--5--5----5--5--|


eb|-------------------|-------------------|-----------------------|----------------|
Bb|-------------------|-------------------|-----------------------|----------------|
Gb|-------------------|-------------------|-----------------------|----------------|
Db|-------------------|--2----------------|-----------------------|----------------|
Ab|--4-/s/--2--2--2---|-----2---2---2--2--|-------5-----5-------4-|-2--------0-----|
Eb|--0---------0--0---|---------0---0--0--|--/s/--0-----0-------0-|-0--------0-----|


PART 2........*   ============= EQUALS REPEATED PICKING (SOFTLY)
eb|--------------------------------------------------------------------------------|
Bb|---14========-12==========10========9------5-5-5---14======12========14======12-|
Gb|--------------------------------------------------------------------------------|
Db|--------------------------------------------------------------------------------|
Ab|--------------------------------------------------------------------------------|
Eb|--------------------------------------------------------------------------------|
[ Tab from: http://www.guitartabs.cc/tabs/p/placebo/burger_queen_tab_ver_2.html ]
PART 3 ......*
3e|-----------------------|R|------------------------------|R|
Bb|-----------------------|R|------------------------------|R|
Gb|-----------------------|R|------------------------------|R|
Db|-------------6---------|R|---6-6-6-6------4-----6-6-6-6-|R|
Ab|--4--4--4----7---------|R|---7-7-7-7--\S\-5-/S/-7-7-7-7-|R|
Eb|--5--5--5--------------|R|------------------------------|R| 

  R = REPEAT
PART 4
4e|-----------------------------------------------------------|
Bb|---10========-9===10======12--10---9-9-9----4---5========--|
Gb|-----------------------------------------------------------|
Db|-----------------------------------------------------------|
Ab|-----------------------------------------------------------|
Eb|-----------------------------------------------------------|


REPEAT A FEW TIMES THEN.....
PART 5
eb|-----------------------------------------------------------|
Bb|---10========-9===10=================12--9=================|
Gb|-----------------------------------------------------------|
Db|-----------------------------------------------------------|
Ab|-----------------------------------------------------------|
Eb|-----------------------------------------------------------|

PART 6
eb|------------------------------------------------|R|
Bb|---10=====================-9====================|R|
Gb|------------------------------------------------|R|
Db|------------------------------------------------|R|
Ab|------------------------------------------------|R|
Eb|------------------------------------------------|R|

eb|------------------------------------------------|R|
Bb|------------------------------------------------|R|
Gb|------------------------------------------------|R|
Db|------------------------------------------------|R|
Ab|------------------------------------------------|R|
Eb|----(7)--(7)------------------------------------|R|


PART 7
eb|-------------------------------------------------|R|
Bb|-------------------------------------------------|R|
Gb|-------------------------------------------------|R|
Db|----11------------------10-10------6-------------|R|
Ab|----12================= 11 11------7=============|R|
Eb|-------------------------------------------------|R|

PARTS1 AND 2 ARE PLAYED TOGETHERPARTS 3 AND 4 ARE PLAYED TOGETHER
PARTS 5,6 AND SEVEN ARE PLAYED TOGETHER
Comments