Placebo - Burger Queen Chords & Tabs

 

Burger Queen Chords & Tabs

Placebo Chords & Tabs

Version: 1 Type: Tab 0 ratings
1 star 2 stars 3 stars 4 stars 5 stars
comments

Burger Queen Tab

Artist: Placebo
Album: Without You I'm Nothing
Title: Burger Queen
Tabbed by: "Dora D" (seeking_dora@yahoo.com)

Here's Placebo's "Burger Queen" in standard tuning.  Note that you must
place a capo on first fret, and all fret numbers in the tab do not account
for this (i.e. --1-- is played as open string because of the capo, and there
are no 0s (zeros) in the tab).

RIFF 1:
    main riff played all the way through the verses.

e |---------------------------|---------------------------|
b |---------------------------|---------------------------|
g |---------------------------|---------------------------|
D |-10--10--11--10------10-\2-|-2---2-2/6-6---6-6---6---1-|
A |-1---1---1---1-------1-----|-1---1-1---1---1-1---1---1-|
E |---------------------------|---------------------------|

e |---------------------------|-------------------------------|
b |---------------------------|-------------------------------|
g |-------------------8-------|-------------------------------|
D |-10-p8---8---8-------8---8-|-----8---8-8h10h11-11p10---6-6-|
A |-1-------1---1---1---1---1-|-1---1---1-1-------1-------1-1-|
E |---------------------------|-------------------------------|


RIFF 2:
    backing riff on the chorus bit ("makes no sense at all....")

e |----------------|-----------|
b |----------------|-8---------|
g |------------8---|-----------|
D |--------6-------|-----------|
A |----------------|-----------|
E |----4-----------|-----------|
       let it all ring.... it's a real stretch! :)

RIFF 3:
    lead riff on intro and interlude bit

e |-8-8-8-6---6-6-6-----------------|-8-8-8-6---6-6-6-8-8-8-6---6-6-6-|
b |-----------------9-9-9-8---6-6-6-|---------------------------------|
g |---------------------------------|---------------------------------|
D |---------------------------------|---------------------------------|
A |---------------------------------|---------------------------------|
E |---------------------------------|---------------------------------|

[ Tab from: http://www.guitartabs.cc/tabs/p/placebo/burger_queen_tab.html ]
RIFF 4:
    lead riff for chorus (also in interlude bit)...

e |---------------------------6-----|---------------------------------|
b |-9-9-9-9---9-9-9-9-8-8-9-----9-2/4-4-4-4-4-4-4-4-4-4-4-4-4-4-4-4/--|
g |---------------------------------|---------------------------------|
D |---------------------------------|---------------------------------|
A |---------------------------------|---------------------------------|
E |---------------------------------|---------------------------------|

e |---------------------------------|-6-6-6-6-6-6-6-6-----------------|
b |-9-9-9-9---9-9-9-9-8-8-9---9-9-9-|-----------------8-8-8-8-8-8-8-8-|
g |---------------------------------|---------------------------------|
D |---------------------------------|---------------------------------|
A |---------------------------------|---------------------------------|
E |---------------------------------|---------------------------------|


RIFF 5:
    interlude riff...  you can probrably figure it out for yourself.
    just play this quietly a few times, bringing in a harmonized version
    an octave lower:

e |---------------------------------|---------------------------------|
b |-9-9-9-9-9-9-9-9-9-9-9-9-9-9-9-9-|-8-8-8-8-8-8-8-8-8-8-8-8-8-8-8-8-|
g |---------------------------------|---------------------------------|
D |---------------------------------|---------------------------------|
A |---------------------------------|---------------------------------|
E |---------------------------------|---------------------------------|

then play RIFF 3.......  then play this different version of RIFF 3...

e |-8-8-8-6---6-6-6-----------------|-8-8-8-6---6-6-6-6-8-8-9-9-8-8-6-|
b |-----------------9-9-9-8---6-6-6-|---------------------------------|
g |---------------------------------|---------------------------------|
D |---------------------------------|---------------------------------|
A |---------------------------------|---------------------------------|
E |---------------------------------|---------------------------------|

then play RIFF 4...

Simple.
Comments