Placebo - Bulletproof Cupid Chords & Tabs

 

Bulletproof Cupid Chords & Tabs

Placebo Chords & Tabs

Version: 3 Type: Tab 0 ratings
1 star 2 stars 3 stars 4 stars 5 stars
comments

Bulletproof Cupid Tab

   
-----------------------------------------------------------------------------
			    Bulletproof Cupid - Placebo 
-----------------------------------------------------------------------------




Tabbed by Daniel Rodrνguez Paz 
e-mail: nopuedoverte@hotmail.com

*Este producto fue hecho en Guadalajara Jalisco, MEXICO, se aprueba su copia
para cualquier tipo de uso legal o ilegal. Arriba the strokes.

I heard some mistakes in the other version, so i made my own version, this
is the second tab i make, but i΄m sure its right

intro 
e|-----------------------------|
B|-----------------------------|
G|-----------------------------|
D|-8-8-11-11-10-10-10-10-10-10-|
A|-6-6--9--9—-8--8--8--8--8--8-|  x4
E|----------—---—-—-—----------|

Verse
Guitar one                        

e|-----------------------------|
B|-----------------------------|
G|-8-8-11-11-10-10-10-10-10-10-|
D|-8-8-11-11-10-10-10-10-10-10-|
A|-6-6--9--9—-8--8--8--8--8--8-| x4
E|----------—---—-—-—----------|

Guitar two (after four times guitar one)
e|--------------|
B|--------------|
G|--------------|
D|-8-8-11-11-10-|
A|-6-6--9--9—-8-| x4
E|--------------|

Guitar one
e|---------------------------------------------------------|
B|---------------------------------------------------------|
G|-8---10-7---10-8---10-7---10-8---10-7---10-8---10-7---10-|
D|-8---10-7---10-8---10-7---10-8---10-7---10-8---10-7---10-|
A|-6----8-5----8-6----8-5----8-6----8-5----8-6----8-5----8-|
E|---------------------------------------------------------|
[ Tab from: http://www.guitartabs.cc/tabs/p/placebo/bulletproof_cupid_tab_ver_3.html ]
Guitar two
e|-----------------------------------------|
B|-----------------------------------------|
G|-----------------------------------------|
D|-----------------------------------------| 
A|-6--6-9-6-9-6-9-6-9-6/5—-5-8-5-8-5-8-5/6-|
E|-----------------------------------------|

Chorus
Guitar one
e|------------------------------------------------|
B|------------------------------------------------|
G|------------------------------------------------|
D|-9-9-6-6-6--9-9-9-9-9-9-9--6-6-6--9-9-9-9-9-9-9-|
A|-9-9-6-6-6--9-9-9-9-9-9-9--6-6-6--9-9-9-9-9-9-9-|
E|-7-7-4-4-4--7-7-7-7-7-7-7--4-4-4--7-7-7-7-7-7-7-|

Guitar two
e|-------------------------------------------------------------------------------------|
B|-7-7-7-7-3-3-3-3-0-0-0-0--7-7-7-7-3-3-3-3-0-0-0-0--7-7-7-7--3-3-3-3-0-0-0-0-6-6-6-6-|
G|-------------------------------------------------------------------------------------|
D|-------------------------------------------------------------------------------------|
A|-------------------------------------------------------------------------------------|
E|-------------------------------------------------------------------------------------|


Then everything repeats, and in the verse at the end play this

e|------------------------------------------------------------------------|
B|------------------------------------------------------------------------|
G|-------------------------------------8-8-8-8--8-8-8-8--8-8-8-8--8-8-8-8-|
D|-8-8-8-8--8-8-8-8--8-8-8-8--8-8-8-8-------------------------------------|
A|------------------------------------------------------------------------|
E|------------------------------------------------------------------------|
Comments