Placebo - Bulletproof Cupid Chords & Tabs

 

Bulletproof Cupid Chords & Tabs

Placebo Chords & Tabs

Version: 1 Type: Tab 0 ratings
1 star 2 stars 3 stars 4 stars 5 stars
comments

Bulletproof Cupid Tab

PLACEBO - Bulletproof Cupid
---------------------------
Sleeping with Gost

Story :
-------
I was listening the mp3 download yesterday on my compter and this one song very well...
It song's pretty heavy metal and it's cool ;-)

You are to turn your low E of one half tune (listen to the original song)  

INTRO;
------

-----------------------------------------------------||
-----------------------------------------------------||
-----------------------------------------------------|| X2
-------9-9-9-8--8--8-8-8-9-------9-9-9-8--8--8-8-8-9-||
-0--0-----------------------0--0---------------------||
[ Tab from: http://www.guitartabs.cc/tabs/p/placebo/bulletproof_cupid_tab.html ]
-0--0-------------------------------||
-8--8-------------------------------||
-8--8--11-11-11-10--10--10-10-10-11-|| X8
-6--6--9--9--9--8---8---9--9--9--9--||
-0--0-------------------------------||

---------------------------------------------------------------------------------||
-8-8-8-8-8-8-8-8-11-11-10-11-11-11-10-11-7-7-7-7-7-7-7-7-11-11-10-11-11-11-10-11-||
-8-8-8-8-8-8-8-8-11-11-10-11-11-11-10-11-7-7-7-7-7-7-7-7-11-11-10-11-11-11-10-11-|| X4
-6-6-6-6-6-6-6-6-9--9--8--9--9--9--8--9--5-5-5-5-5-5-5-5-9--9--8--9--9--9--8--9--||
-0-0-0-0-0-0-0-0-0--0--0--0--0--0--0--0--0-0-0-0-0-0-0-0-0--0--0--0--0--0--0--0--||


Enjoy to finish the song...see ya ! 
Comments