Placebo - Bulletproof Cupid Live Chords & Tabs

 

Bulletproof Cupid Live Chords & Tabs

Placebo Chords & Tabs

Version: 1 Type: Tab 0 ratings
1 star 2 stars 3 stars 4 stars 5 stars
comments

Bulletproof Cupid Live Tab

Bulletproof cupid-placebo
live in paris 2003

saludos a alberto y a su abuelita

* * * * * * * * *

INTRODUCCIÓN SIN DISTOSION
----------------------------------------------|
----------------------------------------------|
----------------------------------------------| X 4 VECES
----------------------------------------------|
--6--6--9--9--8--8--8--4-4-4------------------|
----------------------------------------------|


* * * * * * * * *

GTR 1
----------------------------------------------|
----------------------------------------------| X 4 VECES
----------------------------------------------|
----------------------------------------------|
-6--6--9-9-9--8-------------------------------|
----------------------------------------------|


* * * * * * * * *

GTR 1
----------------------------------------------|
----------------------------------------------| X 4 VECES
----------------------------------------------|
----------------------------------------------|
-6--6--9-9-9--8-------------------------------|
----------------------------------------------|

GTR 2
----------------------------------------------|
----------------------------------------------| X 4 VECES
----------------------------------------------|
-8--8--11-11-11-10----------------------------|
-6--6--9--9--9--8-----------------------------|
----------------------------------------------|


* * * * * * * * *

GTR 1
----------------------------------------------|
----------------------------------------------| X 4 VECES
--10--8---------------------11--7-------------|
--10--8---------------------11--7-------------|
--8---6---------------------9---5-------------|
----------------------------------------------|
GTR 2
----------------------------------------------|
----------------------------------------------| X 4 VECES
----------------------------------------------|
-4-6-4-6-4-6-4-6-4--4-6-4-6-4-6-4-6-6---------|
----------------------------------------------|
----------------------------------------------|
* * * * * * * * *

GTR 1
----------------------------------------------|
----------------------------------------------| X 4 VECES
----------------------------------------------|
--10/-7-7-7-7-10-10-10-10-10-10-10------------|
--10/-7-7-7-7-10-10-10-10-10-10-10------------|
--8 / 5-5-5-5-8--8--8--8--8--8--8—------------|


* * * * * * * * *

GTR 1
----------------------------------------------|
----------------------------------------------|
----------------------------------------------|
--10/-7-7-7-7-10-10-10-10-10-10-10------------|
--10/-7-7-7-7-10-10-10-10-10-10-10------------|
--8 / 5-5-5-5-8--8--8--8--8--8--8—------------|

GTR 2
-------------------------------------------------|
-------------------------------------------------|
-21-21-21-21-21-20-20-20-20-19-19-19-19-19-19-19-|
-------------------------------------------------|
-------------------------------------------------|
-------------------------------------------------|

* * * * * * * * *

GTR 1
----------------------------------------------|
----------------------------------------------|
----------------------------------------------|
--10/-7-7-7-7-10-10-10-10-10-10-10------------|
--10/-7-7-7-7-10-10-10-10-10-10-10------------|
--8 / 5-5-5-5-8--8--8--8--8--8--8—------------|


GTR 2
-------------------------------------------------|
-------------------------------------------------|
-19-19-19-19-16-16-16-16-13-13-13-13-13-13-13-13-|
-------------------------------------------------|
-------------------------------------------------|
-------------------------------------------------|




* * * * * * * * *

GTR 1
----------------------------------------------|
----------------------------------------------|
----------------------------------------------|
--10/-7-7-7-7-10-10-10-10-10-10-10------------|
--10/-7-7-7-7-10-10-10-10-10-10-10------------|
--8 / 5-5-5-5-8--8--8--8--8--8--8—------------|

GTR 2
-------------------------------------------------|
-------------------------------------------------|
-21-21-21-21-21-16-16-16-16-13-13-13-13-13-13-13-|
-------------------------------------------------|
-------------------------------------------------|
-------------------------------------------------|


* * * * * * * * *

GTR 1
----------------------------------------------|
----------------------------------------------|
----------------------------------------------|
--10/-7-7-7-7-10-10-10-10-10-10-10------------|
--10/-7-7-7-7-10-10-10-10-10-10-10------------|
--8 / 5-5-5-5-8--8--8--8--8--8--8—------------|

GTR 2
----------------------------------------------|
----------------------------------------------|
-20-20-20-20-20-20-20-20-20-20-20-------------|
----------------------------------------------|
----------------------------------------------|
----------------------------------------------|

* * * * * * * * *

GTR 1
----------------------------------------------|
----------------------------------------------| X 4 VECES
----------------------------------------------|
----------------------------------------------|
-6--6--9-9-9--8-------------------------------|
----------------------------------------------|


* * * * * * * * *
[ Tab from: http://www.guitartabs.cc/tabs/p/placebo/bulletproof_cupid_live_tab.html ]
GTR 1
----------------------------------------------|
----------------------------------------------| X 4 VECES
----------------------------------------------|
----------------------------------------------|
-6--6--9-9-9--8-------------------------------|
----------------------------------------------|

GTR 2
----------------------------------------------|
----------------------------------------------| X 4 VECES
----------------------------------------------|
-8--8--11-11-11-10----------------------------|
-6--6--9--9--9--8-----------------------------|
----------------------------------------------|


* * * * * * * * *

GTR 1
----------------------------------------------|
----------------------------------------------| X 2 VECES
--10--8---------------------11--7-------------|
--10--8---------------------11--7-------------|
--8---6---------------------9---5-------------|
----------------------------------------------|
GTR 2
----------------------------------------------|
-------------------6-6-6-6-6-6-6-6-6-6-6------| X 2 VECES
----------------------------------------------|
-4-6-4-6-4-6-4-6-4----------------------------|
----------------------------------------------|
----------------------------------------------|

* * * * * * * * *

GTR 1
----------------------------------------------|
----------------------------------------------| X 2 VECES
--10--8---------------------11--7-------------|
--10--8---------------------11--7-------------|
--8---6---------------------9---5-------------|
----------------------------------------------|
GTR 2
-----------------------------------------------|
--------------------12-12-12-12-12-12-12-12-12-| X 2 VECES
-----------------------------------------------|
-4-6-4-6-4-6-4-6-4-----------------------------|
-----------------------------------------------|
-----------------------------------------------|


* * * * * * * * *

GTR 1
----------------------------------------------|
----------------------------------------------|
----------------------------------------------|
--10/-7-7-7-7-10-10-10-10-10-10-10------------|
--10/-7-7-7-7-10-10-10-10-10-10-10------------|
--8 / 5-5-5-5-8--8--8--8--8--8--8—------------|

GTR 2
-------------------------------------------------|
-------------------------------------------------|
-21-21-21-21-21-20-20-20-20-19-19-19-19-19-19-19-|
-------------------------------------------------|
-------------------------------------------------|
-------------------------------------------------|

* * * * * * * * *

GTR 1
----------------------------------------------|
----------------------------------------------|
----------------------------------------------|
--10/-7-7-7-7-10-10-10-10-10-10-10------------|
--10/-7-7-7-7-10-10-10-10-10-10-10------------|
--8 / 5-5-5-5-8--8--8--8--8--8--8—------------|


GTR 2
-------------------------------------------------|
-------------------------------------------------|
-19-19-19-19-16-16-16-16-13-13-13-13-13-13-13-13-|
-------------------------------------------------|
-------------------------------------------------|
-------------------------------------------------|


* * * * * * * * *

GTR 1
----------------------------------------------|
----------------------------------------------|
----------------------------------------------|
--10/-7-7-7-7-10-10-10-10-10-10-10------------|
--10/-7-7-7-7-10-10-10-10-10-10-10------------|
--8 / 5-5-5-5-8--8--8--8--8--8--8—------------|

GTR 2
-------------------------------------------------|
-------------------------------------------------|
-21-21-21-21-21-16-16-16-16-13-13-13-13-13-13-13-|
-------------------------------------------------|
-------------------------------------------------|
-------------------------------------------------|


* * * * * * * * *

GTR 1
----------------------------------------------|
----------------------------------------------|
----------------------------------------------|
--10/-7-7-7-7-10-10-10-10-10-10-10------------|
--10/-7-7-7-7-10-10-10-10-10-10-10------------|
--8 / 5-5-5-5-8--8--8--8--8--8--8—------------|

GTR 2
----------------------------------------------|
----------------------------------------------|
-20-20-20-20-20-20-20-20-20-20-20-------------|
----------------------------------------------|
----------------------------------------------|
----------------------------------------------|

* * * * * * * * *

GTR 1
----------------------------------------------|
----------------------------------------------| X 4 VECES
----------------------------------------------|
----------------------------------------------|
-6--6--9-9-9--8-------------------------------|
----------------------------------------------|

GTR 2
----------------------------------------------|
----------------------------------------------| X 4 VECES
----------------------------------------------|
-8--8--11-11-11-10----------------------------|
-6--6--9--9--9--8-----------------------------|
----------------------------------------------|


* * * * * * * * *

GTR 1
----------------------------------------------|
----------------------------------------------| X 4 VECES
-----------------8-8-8-8-8-8-8----------------|
----------------------------------------------|
-6--6--9-9-9--8-------------------------------|
----------------------------------------------|

GTR 2
----------------------------------------------|
----------------------------------------------| X 4 VECES
----------------------------------------------|
-8--8--11-11-11-10----------------------------|
-6--6--9--9--9--8-----------------------------|
----------------------------------------------|
Comments