Placebo - Blue American Chords & Tabs

 

Blue American Chords & Tabs

Placebo Chords & Tabs

Version: 2 Type: Tab 0 ratings
1 star 2 stars 3 stars 4 stars 5 stars
comments

Blue American Tab

   
Placebo Guitar Tablature
Song: Blue American
Release: "Black Market Music"

Tabbed By Olov Ryds?ter (oloryd-0@student.luth.se)

Tuning (Thickest to Thinest)
F#, Bb, Eb, G#, C, C.

Intro, played once

C  ----------------------------------------------------|
C  ----------------------------------------------------|
G# -2-2-2-2-2-0-0-0-0-0-2-2-2-2-2-0--------------------|
Eb -2-2-2-2-2-2-2-2-2-2-2-2-2-2-2-2--------------------|
Bb -0-0-0-0-0-2-2-2-2-2-0-0-0-0-0-2--------------------|
F# -----------0-0-0-0-0-----------0--------------------|

Part 1 - "I wrote.."

C  ----------------------------------------------------|
C  ----------------------------------------------------|
G# -2-2-2-2-2-0-0-0-0-0-2-2-2-2-2-0-0-0-0-0------------|
Eb -2-2-2-2-2-2-1-2-2-2-2-2-2-2-2-2-1-2-2-2------------|
Bb -0-0-0-0-0-2-2-2-2-2-0-0-0-0-0-2-2-2-2-2------------|
F# -----------0-0-0-0-0-----------0-0-0-0-0------------|
(repeat 2x)

Part 2 - "and I say.."
[ Tab from: http://www.guitartabs.cc/tabs/p/placebo/blue_american_tab_ver_2.html ]
C  ----------------------------------------------------|
C  ----------------------------------------------------|
G# -------------------0-0-0-0-0-0-0-0-0----------------|
Eb -2-2-2-2-2-2-2-2-2-3-3-3-3-3-3-3-3-3----------------|
Bb -2-2-2-2-2-2-2-2-2-3-3-3-3-3-3-3-3-3----------------|
F# -0-0-0-0-0-0-0-0-0-0-0-0-0-0-0-0-0-0----------------|

C  ----------------------------------------------------|
C  ----------------------------------------------------|
G# ----------------------------------------------------|
Eb -2-2-2-2-2-2-2-2-2-0--------------------------------|
Bb -2-2-2-2-2-2-2-2-2-0--------------------------------|
F# -0-0-0-0-0-0-0-0-0-0--------------------------------|

Part 3 - "and I say.."

C  ----------------------------------------------------|
C  ----------------------------------------------------|
G# -------------------0-0-0-0-0-0-0-0-0----------------|
Eb -2-2-2-2-2-2-2-2-2-3-3-3-3-3-3-5-5-5----------------|
Bb -2-2-2-2-2-2-2-2-2-3-3-3-3-3-3-5-5-5----------------|
F# -0-0-0-0-0-0-0-0-0-0-0-0-0-0-0-0-0-0----------------|
(repeat 3x)

C  ----------------------------------------------------|
C  ----------------------------------------------------|
G# ----------------------------------------------------|
Eb -2-2-2-2-2-2-2-2-2-0--------------------------------|
Bb -2-2-2-2-2-2-2-2-2-0--------------------------------|
F# -0-0-0-0-0-0-0-0-0-0--------------------------------|

Repeat these parts throughout the song
Comments