Placebo - Black Eyed Chords & Tabs

 

Black Eyed Chords & Tabs

Placebo Chords & Tabs

Version: 3 Type: Tab 0 ratings
1 star 2 stars 3 stars 4 stars 5 stars
comments

Black Eyed Tab

Band: Placebo
song: Black eyed
Tabbed by Jose Cruz

STANDAR TUNING

There are 3 ways to play this song.

- FOR 1 GUITAR
- FOR 1 GUITAR (EASIER)
- FOR 2 GUITARS

///////////////////////////////////////////////////////////

FOR 1 GUITAR

Intro
1 ----------------------|
2 ----------------------|
3 -3--------------------|
4 -4--------------------|
5 ----------------------|
6 -2--------------------|

Chorus 1 (distorn)
1 ----------------------|
2 ----------------------|
3 -3-----------3--------|
4 -4-----------4--------|
5 -------------2--------|
6 -2--------------------|

Chorus 2 & Final (distorn)
1 ----------------------|
2 -------------7--------|
3 -3-----------4--------|
4 -4-----------4--------|
5 ----------------------|
6 -2-----------7--------|

///////////////////////////////////////////////////////////////////

FOR 1 GUITAR (EASIER)

Intro (clean)
1 ----------------------|
2 ----------------------|
3 -3--------------------|
4 -4--------------------|
5 ----------------------|
6 -2--------------------|
[ Tab from: http://www.guitartabs.cc/tabs/p/placebo/black_eyed_tab_ver_3.html ]
Chorus 1 2 & Final (distorn)
1 ----------------------|
2 ----------------------|
3 -3-----------3--------|
4 -4-----------4--------|
5 -------------2--------|
6 -2--------------------|

////////////////////////////////////////////////////////////////

FOR 2 GUITARS

Intro 
[Guitar 1] (clean)
1 ----------------------|
2 ----------------------|
3 -3--------------------|
4 -4--------------------|
5 ----------------------|
6 -2--------------------|


Chorus 1 
[Guitar 1]
1 ----------------------|
2 ----------------------|
3 -3-----------3--------|
4 -4-----------4--------|
5 -------------2--------|
6 -2--------------------|


Chorus 2 
[Guitar 1]
same as Chorus 1

[Guitar 2]
1 ----------------------|
2 -------------7--------|
3 -3--------------------|
4 ----------------------|
5 ----------------------|
6 ----------------------|

Final chorus
[Guitar 1]
same as Chorus 1

[Guitar 2]
1 ----------------------|
2 -77777777777/9966-----|
3 ----------------------|
4 ----------------------|
5 ----------------------|
6 ----------------------|

If you play this song whit two guitars [Guitar 2] must have more
presence (Volume) than [Guitar 1] and you need an overdrive distorn
for guitar 1 and overdrive whit a lot of reverb for guitar 2.

note: you can use a capo in 2nd fret.
Comments