Placebo - Black Eyed Chords & Tabs

 

Black Eyed Chords & Tabs

Placebo Chords & Tabs

Version: 1 Type: Tab 0 ratings
1 star 2 stars 3 stars 4 stars 5 stars
comments

Black Eyed Tab

   
C  -----------------------------------------
C  -----------------------------------------
G# -----------------------------------------
Eb -----------------------------------------
Bb -12-12-12-12-12-12--12-12-12-12-12-12-12-
F# -0--0--0--0--0--0---0--0--0--0--0--0--0-- (X2)

1st Chorus:
Distorted, same as above.

2nd Chorus:

C  -----------------------------------------
C  -----------------------------------------
G# -----------------------------------------
Eb -----------------------------------------
Bb -12-12-12-12-12-12--12-12-12-12-12-12-12-
F# -0--0--0--0--0--0---0--0--0--0--0--0--0-- (X2)
* * *
"Black eye - ed"

C  -----------------------------------------
C  -----------------------------------------
G# -----------------------------------------
Eb -----------------------------------------
Bb -20-20-20-20-20-20--20-20-20-20-20-20-20-
F# -0--0--0--0--0--0---0--0--0--0--0--0--0-- (X2)
* * *

Last chorus: Play this twice through ("Broken home..." vocals come in second time)
[ Tab from: http://www.guitartabs.cc/tabs/p/placebo/black_eyed_tab.html ]
C  -----------------------------------------
C  -----------------------------------------
G# -----------------------------------------
Eb -----------------------------------------
Bb -12-12-12-12-12-12--12-12-12-12-12-12-12-
F# -0--0--0--0--0--0---0--0--0--0--0--0--0-- (X2)
* * *
"Black eye - ed"

C  -----------------------------------------
C  -----------------------------------------
G# -----------------------------------------
Eb -----------------------------------------
Bb -20-20-20-20-20-20--20-20-20-20-20-20-20-
F# -0--0--0--0--0--0---0--0--0--0--0--0--0-- (X2)
* * *

The keyboard part (chorus) tabbed for guitar.

F A# F A# F A# F B A#
C  -----------------------------------------
C  ----10-----10-------10-------11--10------
G# -9------9-------9--------9---------------
Eb -----------------------------------------
Bb -----------------------------------------
F# -----------------------------------------


The overdubbed guitar on final chorus:

C  ---------------------------------------------------
C  ---------------------------------------------------
G# -10-10-10--10-10-10-10--10--10-10--12-12-12--9-9-9-
Eb ---------------------------------------------------
Bb --------------------------------------------------- (repeat)
F# ---------------------------------------------------
Comments