Placebo - Bitter End Chords & Tabs

 

Bitter End Chords & Tabs

Placebo Chords & Tabs

Version: 1 Type: Tab 0 ratings
1 star 2 stars 3 stars 4 stars 5 stars
comments

Bitter End Tab

#----------------------------------PLEASE NOTE---------------------------------#
#This file is the author's own work and represents their interpretation of the #
#song. You may only use this file for private study, scholarship, or research. #
#------------------------------------------------------------------------------#

This is my first sucsessful tab tat got given to me by radio4. 
Thanks radio4, and I hope others will enjoy rocking with this tab.



Intro/Verses

|--------------|
|-7---------7--|
|-8---------8--|
|--------------| 
|--------------|
|--------------|
             

Second Guitar
|---------------------------------|
|---------------------------------|
|-6-6-6-6-6-6-6-6-6-6-6-6-6-6-6-6-|
|-6-6-6-6-6-6-6-6-6-6-6-6-6-6-6-6-|
|-4-4-4-4-4-4-4-4-4-4-4-4-4-4-4-4-|
|---------------------------------|



Chorus/Verses
[ Tab from: http://www.guitartabs.cc/tabs/p/placebo/bitter_end_tab.html ]
|---------------------------------------------------------------------------|
|---------------------------------------------------------------------------|
|-11-11-11-11---11-11\-10-10-10-10--10-10\--8-8-8-8---8-8\--6-6-6-6---6-6/--|
|---------------------------------------------------------------------------|
|--9--9--9--9----9--9\--8--8--8--8---8--8\--6-6-6-6---6-6\--4-4-4-4---4-4/--|
|---------------------------------------------------------------------------|

Second Part/Chorus
|--------------------------------------------------------------------------------|
|--------------------------------------------------------------------------------|
|--18-18-18-18-18\--16-16-16-16-16\--15-15-15-15-15\--13-13-13-13-13-------------|
|--------------------------------------------------------------------------------|
|--16-16-16-16-16\--14-14-14-14-14\--13-13-13-13-13\--11-11-11-11-11-------------|
|--------------------------------------------------------------------------------|
Comments