Placebo - Bigmouth Strikes Again Chords & Tabs

 

Bigmouth Strikes Again Chords & Tabs

Placebo Chords & Tabs

Version: 3 Type: Bass Tab 0 ratings
1 star 2 stars 3 stars 4 stars 5 stars
comments

Bigmouth Strikes Again Bass Tab

   
Placebo - Bigmouth Strikes Again (The Smiths cover)

Surely not perfect, but fun to play like this...



Intro + Verse (bass comes in at 54 seconds):

[ Tab from: http://www.guitartabs.cc/tabs/p/placebo/bigmouth_strikes_again_btab_ver_3.html ]
G|-------------------------------|    \
D|--------------------------8----|     |
A|-4---4----4-6-7--7-7---7h9---9-|     |
E|--------------------7----------|     | 
                                       >   x10
G|-------------------------------|     |
D|-------------------------------|     |  
A|-4---4----4-2-0--0-7-0-0-0-9---|     |
E|-----------------------------7-|    /


Bridge

G|----------------------------------|    \
D|----------------------------------|     |
A|----------------------------------|     |
E|-44444444444444442222222222222222-|     |
                                           >   x2
G|----------------------------------|     |
D|----------------------------------|     |
A|----------------------------------|     |
E|-44444444444444445555555577777777-|    /


Verse x4

Bridge x4

Verse x4

end on:

G|-----|
D|-----|
A|-4---|
E|-----|
Comments