Placebo - Because I Want You Chords & Tabs

 

Because I Want You Chords & Tabs

Placebo Chords & Tabs

Version: 1 Type: Tab

Because I Want You Tab

Because I WANT YOU - Placebo


bass:

verse:

G---------------------------------------------------------------|
D---------------------------------------------------------------|
A--8-8-8-8-8-8....-------5-5-5-5-5-5...--8-8-----3-3-3-3-3-3----|..
E --------------------------------------------------------------|

chorus:


G-------------------------------------------------|
D-------------------------------------------------|
A--8-8-8-8-8-8-8-8-8-8...--5-5-5-5-5-5-5-5-5-5----|..
E-------------------------------------------------|


Guitar:


verse:

E------------------------------------------|
B----10...---------7...-10---5...----------|
G----10...---------7...-10---5...----------|
D----10...---------7...-10---5...----------|
A----8...----------5...-8----3...----------|
E------------------------------------------|

than
[ Tab from: http://www.guitartabs.cc/tabs/p/placebo/because_i_want_you_tab.html ]
E-----------------|
B-----------------|
G--10-10-10-------|....
D-----------------|
A-----------------|
E-----------------|

verse 2:

E------------------------------------------|
B------------------------------------------|
G--7-7-7--9-9-9--10-10-10--12-12-12--14-12-|
D------------------------------------------|
A--5-5-5--7-7-7--8--8--8---10-10-10--12-10-|
E------------------------------------------|

chords:

something like that

E-------------------|
B-------------------|
G-10-10-10-10-10-10-| (all the chorus)
D-------------------|
A-8--8--8--8--8--8--|
E-------------------|

it can be played without the "8", the way you live

other:

after the 1 chorus he goes:

E--------------------------|
B--8----10----8----10------|
G----7-----7----7-----7----|
D--------------------------|
A--------------------------|
E--------------------------|


on the break

E----
B--10
G--10
D--10
A--8-
E----

and than it backs to verse 2.

by Henrique Meyer.
tioqueque@brturbo.com.br