Placebo - Ask For Answers Chords & Tabs

 

Ask For Answers Chords & Tabs

Placebo Chords & Tabs

Version: 2 Type: Tab 0 ratings
1 star 2 stars 3 stars 4 stars 5 stars
comments

Ask For Answers Tab

Note: Stefan plays guitar on this one.

Intro/Electric guitar before vocals come in. (Strum chord, then let notes ring.)

C  -0------0-------0-------
C  -0------0-------0-------
G# -0------0-------0-------
D# -5------5-------5-------
A# -5------5-------3-------
F  -3------3---------------

Verse: Use whammy slightly after/as you strike each chord.

C  --0-----0----0------0----0------0------0-----
C  --0-----0----0------0----0------0------0-----
G# --0-----0----0------0----0------5------0-----
D# --5-----5----5------5----5------5------5-----
A# --5-----3----5------3----5------3------5-----
F  --3----------3-----------3-------------3-----

Chorus (Get through, this night...")

C  -----0--0-0-0--0--------0--0-0-0--0-------0--0-0-0--0----0----
C  -----0--0-0-0--0--------0--0-0-0--0-------0--0-0-0--0----0----
G# -X-X-0--0-0-0--11---X-X-0--0-0-0--11--X-X-0--0-0-0--11---5----
D# -X-X-9--9-9-9--12---X-X-9--9-9-9--12--X-X-9--9-9-9--12---5----
A# -X-X-9--9-9-9--12---X-X-9--9-9-9--12--X-X-9--9-9-9--12---3----
F  -----7--7-7-7--10-------7--7-7-7--10------7--7-7-7--10--------

"These bonds are shackle free..." bit:
When striking the "0" add whammy.
[ Tab from: http://www.guitartabs.cc/tabs/p/placebo/ask_for_answers_tab_ver_2.html ]
C  -------------------------------------------------------------
C  -------------------------------------------------------------
G# -----0-------0-------0--------0-------0-------0-------0------
D# -------------------------------------------------------------
A# -------------------------------------------------------------
F -5-------3-------5--------3-------5--------3------5-------3--

On the quiet "These bonds are shackle free..." bit, play last verse but do it quietly.

Outro:


C  ---------------------------------------------------------
C  ---------------------------------------------------------
G# -0--0--0--0--0--0--0---0---0--0--0--0--0--0--0--0--------
D# -14-14-14-14-14-14-14--17--17-17-17-17-17-17-17-17-------
A# -15-15-15-15-15-15-15------14-14-14-14-14-14-14-14-------
F  ---------------------------------------------------------

C  ---------------------------------------------------------
C  ---------------------------------------------------------
G# -0--0--0--0--0--0--0--0----0--0--0--0--0--0--0--0--------
D# -14-14-14-14-14-16-16-16---12-12-12-12-12-12-12-12-------
A# -15-15-15-15-15-15-15-15---14-14-14-14-14-14-14-14-------
F  ---------------------------------------------------------
Comments