Pj Harvey - Water Live Chords & Tabs

 

Water Live Chords & Tabs

Pj Harvey Chords & Tabs

Version: 1 Type: Tab 0 ratings
1 star 2 stars 3 stars 4 stars 5 stars
comments

Water Live Tab

   
------------------------------------------------------------------------
			     WATER - PJ Harvey
------------------------------------------------------------------------
Tabbed by: Leah Maria
This is my first tab, so be forgiving!:D
Tuning: Standard


The Main Riff:
   
  Esus Em/D E Em/D F#
[ Tab from: http://www.guitartabs.cc/tabs/p/pj_harvey/water_live_tab.html ]
e|-----------2-2-2-2---|
B|-----------2-2-2-2---|
G|-2-2-0-1-0-2-2-2-2---|
D|-2-2-0-2-0-4-4-4-4---|
A|-0-0-0-2-0-4-4-4-4---|
E|-----------2-2-2-2---|

Prove it to me part:
e|-4-4-|----------2-2-4-4-4-|
B|-4-4-|----------2-2-4-4-4-|
G|-6-6-|2-2-0-1-0-2-2-6-6-6-|
D|-6-6-|2-2-0-2-0-4-4-6-6-6-|
A|-4-4-|0-0-0-2-0-4-4-4-4-4-|
E|-4-4-|----------2-2-4-4-4-| 
                2x

3rd prove it to me:
e|----------2-2-2-2-|
B|----------2-2-2-2-|
G|2-2-0-1-0-2-2-2-2-|
D|2-2-0-2-0-4-4-4-4-|
A|0-0-0-2-0-4-4-4-4-|
E|----------2-2-2-2-| 

That's it!  I'm pretty sure it is right, I played it with the song.
Comments