Pj Harvey - This Is Love Chords & Tabs

 

This Is Love Chords & Tabs

Pj Harvey Chords & Tabs

Version: 1 Type: Bass Tab

This Is Love Bass Tab

Artist: Pj Harvey
Song: This is love
Tablature: Bass
Tabed by: Ramón D.


Note: I didn't listen something abuot of this band(Radio, friend...), but yesterday(on
web) i found the band "Pj harvey" and i unloaded this song. Is so easy, haves a good
she haves a nice voyce andthe song haves a wonderful rock style. Well, i did thi tab on 
"Bloc de notas". Doesn't have a ritm(?), but the position are so fucking correcs. See 
enjoy.
Ah, use normal afination(?).


*intro-verse:
G|-----------------------|
D|-----------------------|
A|-----------------------|
E|-1/3--3-3-3---3-3--3---|
[ Tab from: http://www.guitartabs.cc/tabs/p/pj_harvey/this_is_love_btab.html ]
*chorus
G|-------------------------------------|
D|-------------------------------------|
A|-1--1--1-1-1/3--3-3------------------|
E|--------------------1--1-(0)--3--3-3-|

*"Even in the summer..." (NOT COMPLETY SURE)
G|-----------------------------------|
D|-----------------------------------|
A|-8--8-8-8-8-8-8-8-5--5-5-5-5-5-5-5-|
E|-----------------------------------|

G|---------------------|
D|---------------------|
A|---------------------|  x2
E|-1/3--3-3-3---3-3-3--|

G|-----------------------------------|
D|-----------------------------------|
A|-8--8-8-8-8-8-8-8-9--9-9-9-9-9-9-9-|
E|-----------------------------------|


G|---------------------|
D|---------------------|
A|---------------------|  x2
E|-1/3--3-3-3---3-3-3--|