Pj Harvey - Happy And Bleeding Chords & Tabs

 

Happy And Bleeding Chords & Tabs

Pj Harvey Chords & Tabs

Version: 1 Type: Tab 0 ratings
1 star 2 stars 3 stars 4 stars 5 stars
comments

Happy And Bleeding Tab

Pj Harvey
Happy And Bleeding

 Note: The Tab is incomplete; I canīt figured out the last riff wich comes before "This
fruit was bruised,dropped off and blue..." I hope that someone can (and pass it to me=P)
 If you have any coment or complain, mail me to marigolandia@hotmail.com. And if my
english sucks, itīs because I speak spanish.

Intro: 

  guitar 1
e|--------------------------------------------------------------------|
b|--------------------------------------------------------------------|
g|---9-9-9-9----8---9----9-9-9-9----9---9----9-9-9-9--------8---9-----|  
d|---9-9-9-9----6---7----9-9-9-9----7---7----9-9-9-9--------6---7-----|
a|--------------------------------------------------------------------|
E|--------------------------------------------------------------------|
 |       							      |
 |guitar 2        						      |
e|-------------------------------------------------b1210--------------|
b|-----------------------------------------------------b1210b12b12----|
g|--------------------------------------------------------------------|  
d|--------------------------------------------------------------------|
a|--------------------------------------------------------------------|
E|--------------------------------------------------------------------|
[ Tab from: http://www.guitartabs.cc/tabs/p/pj_harvey/happy_and_bleeding_tab.html ]
Verse:
guitar 1
e|---------------------------|
b|---------------------------|
g|---9-9-9-9----8---9--------|  
d|---9-9-9-9----6---7--------|
a|---------------------------|
E|---------------------------|
 
after "...Since time began" and before "More than the hills..."

 guitar 1
e|-------------------------------|
b|-------------------------------|
g|--------------------9-9-9-9----|  
d|--------------------9-9-9-9----|
a|-------------------------------|
E|-------------------------------|
 |       			 |
 |guitar 2        	         | X4
e|--b1210------------------------|
b|------b1210b12b12--------------|
g|-------------------------------|  
d|-------------------------------|
a|-------------------------------|
E|-------------------------------|


Chorus:
  Guitar 1

e|--------------------------------------------------------------------------|
b|--------------------------------------------------------------------------|
g|9-9-9-9-----8--9-----9-9-9-9---8--9---9-9-9-9-----8--9---9-9-9-9-----8--9-|
d|9-9-9-9-----6--7-----9-9-9-9---6--7---9-9-9-9-----6--7---9-9-9-9-----6--7-|
a|--------------------------------------------------------------------------|
E|--------------------------------------------------------------------------|
 |	              							    |
 |Guitar 2							            |
e|--------------------------------------------------------------------------|
b|--------------------------------------------------------------------------|
g|b13--14--b13-------b13--14--b13-------b11--12--b11-------b11--12--b11-----|
d|--------------------------------------------------------------------------|
a|--------------------------------------------------------------------------|
E|--------------------------------------------------------------------------|
Comments