Pj Harvey - Dry Chords & Tabs

 

Dry Chords & Tabs

Pj Harvey Chords & Tabs

Version: 1 Type: Tab 0 ratings
1 star 2 stars 3 stars 4 stars 5 stars
comments

Dry Tab

   
PJ HARVEY - DRY
INTRO: distortion

  G5  C5   A5
--------------|
--------------|
--------------|repeat
--5---10---7--|
--5---10---7--|
--3---8----5--|


VERSE1: clean sound then distortion

  G5  C5   A5
--------------|
--------------|
--------------|repeat
--5---10---7--|
--5---10---7--|
--3---8----5--|


CHORUS: clean sound

  C5   A5
----------|
----------|
----------|repeat
--10---7--|
--10---7--|
--8----5--|


SOLO1: play it with a slide (bottleneck) + disto

Guitar1:
--------------------------------------|
--------------------------------------|
--5s12~-------5s7s12~---------4~--4~--|
--------14s5~---------9s---5~---------|
-------------------------5------------|
--------------------------------------|

Guitar2: disto

  G5  C5   A5
--------------|
--------------|
--------------|repeat
--5---10---7--|
--5---10---7--|
--3---8----5--|


VERSE2: same as verse1 with disto


CHORUS


SOLO2: play it with a slide (bottleneck) + disto
[ Tab from: http://www.guitartabs.cc/tabs/p/pj_harvey/dry_tab.html ]
-----------------------------------------------------------|
-----------------------------------------------------------|
--5s12~---------------------5s12--12~--12----12------------|
--------9s14--14s5~--s6s5~----------------12----12--14s5~--|
-----------------------------------------------------------|
-----------------------------------------------------------|

-------------------------------------------------------------|
-------------------------------12----------------12----------|
---------------------5s12--12--12--12--12--5s12--12--12--12--|
--5---s7~--s8~--8s5--5s12--12--12--12--12--5s12--12--12--12--|
----5--------------------------------------------------------|
-------------------------------------------------------------|

-------------------------------|
-------------------------------|
-------------------------------|
--14s5~----5----5s8~--8~--8s5--|
--------5~---5--5s8~--8~-------|
-------------------------------|

--------------------------------------------------------------|
------------12----------------12------------------------------|
--5s12--12--12--12--12--5s12--12--12--12----------------------|
--5s12--12--12--12--12--5s12--12--12--12--14s5s14s5s12s5s10s--|
--------------------------------------------------------------|
--------------------------------------------------------------|


VERSE3:same as verse1 + add this slide fill just before the disto:

---------|
---------|
--5s14s--|
--5s14s--|
---------|
---------|


CHORUS disto + add these slide fills:

-----------------------------|
-----------------------------|
--5s14s---14s---5s14s---14s--|
--5s14s---14s---5s14s---14s--|
-----------------------------|
-----------------------------|

Song ends on the A5...
Comments