Pixies - You Could Be Mine Chords & Tabs

 

You Could Be Mine Chords & Tabs

Pixies Chords & Tabs

Version: 1 Type: Bass Tab 0 ratings
1 star 2 stars 3 stars 4 stars 5 stars
comments

You Could Be Mine Bass Tab

Pixies - U Could Be Mine ....
Tabbed By: scott
EMail: scottuk2


the over 1 is crap  
[ Tab from: http://www.guitartabs.cc/tabs/p/pixies/you_could_be_mine_btab.html ]
so 
ther songs main riffs are 
(bass)
-------------------------------------
-2-2-2-2-----------------------------repeat
---------4-4-4-4---------0-0-0-0-----
-----------------4-4-4-4-------------

i play over drive
(guitar)
e----------------------------
b---9---9---9---9------------repeat
g-9---9---9---9----8--9--8h9-
d----------------------------
Comments