Pixies - Where Is My Mind Chords & Tabs

 

Where Is My Mind Chords & Tabs

Pixies Chords & Tabs

Version: 7 Type: Tab 0 ratings
1 star 2 stars 3 stars 4 stars 5 stars
comments

Where Is My Mind Tab

Pixies - Where Is My Mind

Intro
|-0-0-x-4-4-x-5-5-x-77777777-----------------| 
|-0-0-x-4-4-x-5-5-x-77777777-----------------| 
|-1-1-x-5-5-x-6-6-x-88888888-----------------| 
|-2-2-x-6-6-x-7-7-x-99999999-----------------| 
|-2-2-x-6-6-x-7-7-x-99999999-----------------| 
|-0-0-x-4-4-x-5-5-x-77777777-----------------| 

Pre-Verse x3
1 ------------------------------------------
2 ----9---9---9---9---9---9-----------------
3 --9---9---9---9---8---8---9/8-9/8-9/8-9/8-
4 ------------------------------------------
5 ------------------------------------------
6 ------------------------------------------

verse (bass) 

Chorus
1 --------------------------------------------------------------------------------
2 --------------------------------------------------------------------------------
3 -9--999---6--666---------------------------9--999---6--666----------------------
4 -9--999---6--666---6--666---777777----9--999---6--666---6--666---777777---------
5 -7--777---4--444---6--666---777777----7--777---4--444---6--666---777777---------
6 -----------------------4--444---555555--------------------------4--444---555555-
[ Tab from: http://www.guitartabs.cc/tabs/p/pixies/where_is_my_mind_tab_ver_7.html ]
Second Chorus
1 -----------------------------------------------------------------------
2 -----------------------------------------------------------------------
3 ---9---6-------------9-9--------------------------------6---4---44-4-4-
4 ---9---6---6---7----9-9--6-6666---7-7-77-7-77----6---4---44-4-4--------
5 ---7---4---6---7----7-7--6-6666---7-7-77-7-77----4---2---22-2-2--------
6 ------------4---5----------4-4444---5-5-55-5-55------------------------

Pre-verse x3
Chorus

Solo:
Guitar 1
|--------------------------------------------| 
|-9b---9b-------------------------------8\10-| 
|-9b---9b-----9b--9r-9-9-7----7---9----------| 
|-------------------------------9------------| 
|--------------------------------------------| 
|--------------------------------------------| 

|---------10-12-12-12b-r-13b--r-13b--r-13b--| 
|-10-12-------------------------------------| 
|-------------------------------------------| 
|-------------------------------------------| 
|-------------------------------------------| 
|-------------------------------------------|

Guitar 2 (with guitar 1)
|-----------------10---12b--r-12b--r-12b--r-12b-| 
|-------7-10-12---------------------------------| 
|-7-9-------------------------------------------| 
|-----------------------------------------------| 
|-----------------------------------------------| 
|-----------------------------------------------|

|----------------------------------------------| 
|--7-----7-------------------------------------| 
|--9b---9b----9b--9r-9-9-7-7----7--9--7--------| 
|----------------------------------9---------9-| 
|----------------------------------------------| 
|----------------------------------------------| 

Chorus
Pre-verse x7 (last time without the end part)
Comments