Pixies - Where Is My Mind Chords & Tabs

 

Where Is My Mind Chords & Tabs

Pixies Chords & Tabs

Version: 5 Type: Tab 1 rating
1 star 2 stars 3 stars 4 stars 5 stars
comments

Where Is My Mind Tab

   
#----------------------------------PLEASE NOTE--------------------------------#
#This file is the author's own work and represents their interpretation of the#
#song. You may only use this file for private study, scholarship, or research.#
#-----------------------------------------------------------------------------#

Date: Sun, 22 Mar 1998 18:15:07 -0500
From: Bryson Meunier 
Subject: TAB:p/pixies/where_is_my_mind.tab

WHERE IS MY MIND?
by the Pixies
from "Surfer Rosa" (1988)

E  C#m  Abm  A [twice, then add this:]

------------------------------------
----9---9---9---9---9---9-----------
--9---9---9---9---8---8---9--9p8h8--
------------------------------------
------------------------------------
------------------------------------

   

[Chorus]
[ Tab from: http://www.guitartabs.cc/tabs/p/pixies/where_is_my_mind_tab_ver_5.html ]
solo:
       guitar 1:
   E||--------------------------------------------|
   B||--9b--r-9b--r-------------------------8\10--|
   G||--9b--r-9b--r--9b--9r-9-9-7----7---9--------|
   D||----------------------------9---------------|
   A||--------------------------------------------|
   E||--------------------------------------------|
    || guitar 2:                                  |
   E||--------------------------------------------|
   B||--7-----7-----------------------------------|
   G||--9b--r-9b--r--9b--9r-9-9-7-7----7--9--7----|
   D||------------------------------9-----------9-|
   A||--------------------------------------------|
   E||--------------------------------------------|

   E||--------10-12-12-12b-r-13b--r-13b--r-13b--r-----|
   B||-10-12------------------------------------------|
   G||------------------------------------------------|
   D||------------------------------------------------|
   A||------------------------------------------------|
   E||------------------------------------------------|
    ||                                                |
   E||-------------10---12b--r-12b--r-12b--r-12b--r---|
   B||-----7-10-12------------------------------------|
   G||-7-9--------------------------------------------|
   D||------------------------------------------------|
   A||------------------------------------------------|
   E||------------------------------------------------|

[Repeat first verse]
[Chorus]
[Repeat E C#m Abm A ad lib to finish]

Transcribed by schnitzi@eola.cs.ucf.edu (Mark Schnitzius)
Solo transcribed by meunier.1@osu.edu (Bryson Meunier) 
Comments