Pixies - Where Is My Mind Chords & Tabs

 

Where Is My Mind Chords & Tabs

Pixies Chords & Tabs

Version: 3 Type: Bass Tab 0 ratings
1 star 2 stars 3 stars 4 stars 5 stars
comments

Where Is My Mind Bass Tab

   
This is the correction to:
"Where Is My Mind?"
By: The Pixies
Album:Surfer Rosa

Origanally Tabbed By: Edgar Aguiler 
Re-tabbed By: Bobby Lukens


First 6 bars no bass.

Riff #1
G|--------------------------------|
D|--------------------------------|
A|--------4-4-4-4---------0-0-0-0-|
E|0-0-0-0---------4-4-4-4---------|
[ Tab from: http://www.guitartabs.cc/tabs/p/pixies/where_is_my_mind_btab_ver_3.html ]
Riff #2
G|--------------------------------|
D|--------------------------------|
A|--------------------------------|
E|0-0-0-004-4-4-445-5-5-5-5-5-5-5-|

Riff #3
G|--------------------------------|
D|--------------------------------|
A|--------------------------------|
E|4---------------2-2-2222-2222222|

Riff #4
G|--------------------------------|
D|--------------------------------|
A|--------4-4-4-4-----------------|
E|0-0-0-0---------4-4-------------|

Riff #1 x7
Riff #2 x1
Riff #3 x1
Riff #1 x6
Riff #2 x1
Riff #3 x4
Riff #1 x6
Riff #2 x1
Riff #3 x1
Riff #1 x6
Riff #4 x1

Comments