Pixies - Wave Of Mutilation Chords & Tabs

 

Wave Of Mutilation Chords & Tabs

Pixies Chords & Tabs

Version: 1 Type: Bass Tab 0 ratings
1 star 2 stars 3 stars 4 stars 5 stars
comments

Wave Of Mutilation Bass Tab

From: "Keith Walsh" 
Artist:Pixies
Song Title:Wave Of Mutilation
 
G------------------------------------------------------------------|
D------------------------------------------------------------------|
A------------------------------------------------------------------|
E-6-6-6-6-6-6-6-6-3-3-3-3-3-3-3-3----------------------------------|
[ Tab from: http://www.guitartabs.cc/tabs/p/pixies/wave_of_mutilation_btab.html ]
G------------------------------------------------------------------|
D------------------------------------------------------------------|
A------------------------------------------------------------------|
E-1-1-1-1-1-1-1-1-5-5-5-5-5-5-5-5-6-6-6-6-6-6-6-6-3-3-3-3-3-3-3-3--|
 
G------------------------------------------------------------------|
D------------------------------------------------------------------|
A--------------------------------------------------3---------------|
E-1-1-1-1-5-5-5-5-6-6-6-6------------------------------------------|
 
G---------------------------------------|
D---------------------------------------|
A------------------------------------4--|                 
E-1--------------------6----------------|
 
G---------------------------------------|
D---------------------------------------|
A-------------------------------------5-|
E-1-1-1-1-1-1-1-1-5-5-6-6-5-5-6-6-------|
 
 
 
1x1
2x1
3x3
2x3
3x3
4x2
1x1
2x3
3x3
5x2
3x3
4x2
 
 
 
 
 
 
Comments