Pixies - Velouria Chords & Tabs

 

Velouria Chords & Tabs

Pixies Chords & Tabs

Version: 1 Type: Tab 0 ratings
1 star 2 stars 3 stars 4 stars 5 stars
comments

Velouria Tab

   
-----------------------------------------------------------------------------
			     Velouria - The Pixies
-----------------------------------------------------------------------------
Tabbed by: G.Chau
Email: mwoit@lycos.com

Tuning: Standard eADGBE

Intro:
e|-----------------------------------|
B|-----------------------------------|
G|-----------------3-3-3-4-4-4-------|
D|----3-3-3-4-4-4--3-3-3-4-4-4-------|
A|----3-3-3-4-4-4--1-1-1-2-2-2-------|
E|----1-1-1-2-2-2--------------------|

e|--------------------------------------------------------------|
B|----7-7-6-6-4-2-2----7-6-6-4-4----7-7-6-6-4-2-2----7-6-6-4-4--|
G|--------------------------------------------------------------|
D|--------------------------------------------------------------|
A|--------------------------------------------------------------|
E|--------------------------------------------------------------|

e|---------------------|
B|----7-8-9-10-11------|
G|---------------------|
D|---------------------|
A|---------------------|

Verse:

e|--------------------------------------------x-2-2-2---|
B|------6---4----6---4----6----4-----7---4----x-2-2-2---|
G|----6---6----6---6----6---6--4---6---6-4----x-3-3-3---| (enter Chords)
D|-----------------------------4---------4----x-4-4-4---|
A|-----------------------------2---------2----x-4-4-4---|
E|--------------------------------------------x-2-2-2---|

Bb      D#
Velouria
         B
Her covering
 F#          Bb
Travelling career
 F#             D#
She can really move
B       F#
Oh velveteen

Chorus:
[ Tab from: http://www.guitartabs.cc/tabs/p/pixies/velouria_tab.html ]
F     F#     Bb   B
My Velouria, my Velouria
 F         F#
Even I'll adore ya
B     Bb
My Velouria

Verse:

Bb        D#
Say to me
                B
Where have you been
 F#                  Bb   F#
Finally through the roof
    D#              B
And how does lemur skin
            F#
Reflect the sea?


B
We will wade in the shine of the ever
B
We will wade in the shine of the ever
B
We will wade in the tides of the summer
 B                           D
Every summer, every summer, every,
F#    F
My Velouria
Bb    B
My Velouria

e|--------------------------------------------------------------|
B|----7-7-6-6-4-2-2----7-6-6-4-4----7-7-6-6-4-2-2----7-6-6-4-4--|
G|--------------------------------------------------------------|
D|--------------------------------------------------------------|
A|--------------------------------------------------------------|
E|--------------------------------------------------------------|

e|---------------------|
B|----7-8-9-10-11------|
G|---------------------|
D|---------------------|
A|---------------------|

Forevergreen

I know she's here
   F#      Bb
In California
F#             D#    B
I can see the tears
    F#
Of shastasheen

F    F#      Bb    B
My Velouria, my Velouria
F           F#
Even I'll adore ya
Bb    B
My Velouria

END
Comments