Pixies - Trompe Le Monde Chords & Tabs

 

Trompe Le Monde Chords & Tabs

Pixies Chords & Tabs

Version: 1 Type: Tab 0 ratings
1 star 2 stars 3 stars 4 stars 5 stars
comments

Trompe Le Monde Tab

   
#----------------------------------PLEASE NOTE---------------------------------#
#This file is the author's own work and represents their interpretation of the #
#song. You may only use this file for private study, scholarship, or research. #
#------------------------------------------------------------------------------##
From: schnitzi@east.isx.com (Mark J. Schnitzius)

The Pixies
TROMPE LE MONDE
>From the album of the same name

INTRO:

  Guitar 1
|-9-8-7---------------9-8-7-------------------------|
|-7-----8-------------7-----8-8-7-------------------|
|-7-------------------7-----------------------------|
|-7-------------------7-----------------------------|
|---------------------------------------------------|
|---------------------------------------------------|
| Guitar 2                                          |
|---------------------------------------------------|
|---------------------------------------------------|
|---------------6--4-------------------7--3---------|
|-------------6----5-----------------7----4---------|
|-----------4------5---------------5------4---------|
|------------------3----------------------2---------|

[ Tab from: http://www.guitartabs.cc/tabs/p/pixies/trompe_le_monde_tab.html ]
  Guitar 1
|-----10--------------------------------------------|
|------9-----------6--------------------------------|
|----9-------------7--------------------------------|
|--9-------------7----------------------------------|
|--------------5------------------------------------|
|---------------------------------------------------|
| Guitar 2                                          |
|---------5-----------5-----------------------------|
|---------6-----------5-----------------------------|
|---------7-----------6-----------------------------|
|---------7-----------7-----------------------------|
|---------5-----------7-----------------------------|
|---------------------5-----------------------------|




[Bridge: Spoken]
[Instumental part]


Go little record go.  It is named 
by some guy named Joe. And the words are the
letters of the words said electrically played
for outer space and those who paid.
This song is twice occurred and nows it's 
time to go away on holiday.

-----

Badd4:  -0--       F#7add4   -0-- 
        -0--                 -0--
        -8--                 -3--
        -9--                 -4--
        -9--                 -4--
        -7--                 -2--

From: zipfel@ihlpm.att.com
Subject: Trompe Le Monde bits...

I think this is the trill part (during each second verse)


---14-9-11-14-9-11-14-9-11-14-9-12-14-9-12-14-9-12-14-9-12-
----------------------------------------------------------
----------------------------------------------------------
----------------------------------------------------------
----------------------------------------------------------
----------------------------------------------------------
F#                               B  Bm                   F#
of                              another                  life


I had to play it tapping, but a faster player could do it with the
left hand...

The middle instrumental is based on the intro...           

This song is too fast for me.  I guess I'll have to play it
over and over til I get it right... 
Comments