Pixies - Number 13 Baby Chords & Tabs

 

Number 13 Baby Chords & Tabs

Pixies Chords & Tabs

Version: 1 Type: Chords 0 ratings
1 star 2 stars 3 stars 4 stars 5 stars
comments

Number 13 Baby Chords

   
#----------------------------------PLEASE NOTE--------------------------------#
#This file is the author's own work and represents their interpretation of the#
#song. You may only use this file for private study, scholarship, or research.#
#-----------------------------------------------------------------------------#

Date: Sun, 22 Mar 1998 18:12:47 -0500
From: Bryson Meunier 
Subject: TAB:p/pixies/number_13_baby.tab

NUMBER 13 BABY
by the Pixies
from "Doolittle" (1989)

G
got hair in a girl,(etc...)
   E---------------------------------------|
   B-------8--------8--------8--------8----|
   G--10b----r-10b----r-10b----r-10b----r--|
   D---------------------------------------|
   A---------------------------------------|
   E---------------------------------------|

 
(C# D
vi-va
C# D
la loma
Bb
i want 
C# D
ri-ca
F   E
i made ect...) 
[ Tab from: http://www.guitartabs.cc/tabs/p/pixies/number_13_baby_crd.html ]
G    C         Gm     Eb         Bb     C
 i'm in a state------------------------X3
 
               ____________    ___________
              |1.             |2.
Gm    Eb      | Bb     C#  D  | Bb C# D
  i'm in a state    Im in    ||    Vi-va
   E------------------------------------|
   B------------------------------------|
   G-------9b---------9b----------------|
   D-10-10-----10-10-------8------------|
   A-10-10-----10-10-------8------------|
   E--8--8------8--8-------6------------|

    lead gtr:                 (etc...)                       (etc...)
   E----------------------------------|----------------------------|
   B----------------------------------|-----------15--15-----------|
   G--12-12-12-12--12-12--12-12-12-12-|--15--15-----------12-12-12-|
   D----------------------------------|----------------------------|
   A----------------------------------|----------------------------|
   E----------------------------------|----------------------------|
                                           (let ring)
   E-----------------------------------------------|
   B-------------------------15--15--15/14---------|
   G-12-12-12-12-(\)15--15-------------------------|
   D-----------------------------------------------|
   A-----------------------------------------------|
   E-----------------------------------------------|

                  (repeat)| (about 8x each)
   E-------1-----3-----1--|--------|--------|
   B--1h3-----3-----3-----|--------|--------|
   G----------------------|--9b--r-|--7b--r-|
   D----------------------|--------|--------|
   A----------------------|--------|--------|
   E----------------------|--------|--------|

Chords by HISCAP@LUSTA.LATROBE.EDU.AU (PERRETT,Andrew)
Tabbed by Bryson Meunier (meunier.1@osu.edu)
Comments